ISO-10303-21;
HEADER;
FILE_DESCRIPTION (( 'STEP AP214' ),
    '1' );
FILE_NAME ('7400517_KSTP1.stp',
    '2016-10-12T07:54:09',
    ( '' ),
    ( '' ),
    'SwSTEP 2.0',
    'SolidWorks 2016',
    '' );
FILE_SCHEMA (( 'AUTOMOTIVE_DESIGN' ));
ENDSEC;

DATA;
#1 = ORIENTED_EDGE ( 'NONE', *, *, #192, .T. ) ;
#2 = CARTESIAN_POINT ( 'NONE',  ( -191.2500000000000300, -7.000000000000000000, -191.2499999999999700 ) ) ;
#3 = FILL_AREA_STYLE ('',( #225 ) ) ;
#4 = EDGE_CURVE ( 'NONE', #108, #150, #109, .T. ) ;
#5 = CARTESIAN_POINT ( 'NONE',  ( 0.0000000000000000000, 0.0000000000000000000, 0.0000000000000000000 ) ) ;
#6 = CARTESIAN_POINT ( 'NONE',  ( -191.2499999999999700, -7.000000000000000000, 191.2500000000000300 ) ) ;
#7 = DIRECTION ( 'NONE',  ( 0.0000000000000000000, 0.0000000000000000000, 1.000000000000000000 ) ) ;
#8 = CARTESIAN_POINT ( 'NONE',  ( 191.2500000000000300, 0.0000000000000000000, 191.2500000000000300 ) ) ;
#9 = FACE_OUTER_BOUND ( 'NONE', #156, .T. ) ;
#10 = DIRECTION ( 'NONE',  ( 0.0000000000000000000, 1.000000000000000000, 0.0000000000000000000 ) ) ;
#11 = ADVANCED_BREP_SHAPE_REPRESENTATION ( '7400517_KSTP1', ( #183, #96 ), #52 ) ;
#12 = ORIENTED_EDGE ( 'NONE', *, *, #217, .F. ) ;
#13 = PRESENTATION_LAYER_ASSIGNMENT (  '', '', ( #203 ) ) ;
#14 = DIRECTION ( 'NONE',  ( -1.451271927614584000E-016, 0.0000000000000000000, -1.000000000000000000 ) ) ;
#15 = LINE ( 'NONE', #185, #253 ) ;
#16 = SURFACE_STYLE_FILL_AREA ( #271 ) ;
#17 = ORIENTED_EDGE ( 'NONE', *, *, #158, .T. ) ;
#18 = VECTOR ( 'NONE', #146, 1000.000000000000000 ) ;
#19 = ORIENTED_EDGE ( 'NONE', *, *, #75, .F. ) ;
#20 = ORIENTED_EDGE ( 'NONE', *, *, #113, .F. ) ;
#21 = DIRECTION ( 'NONE',  ( 0.0000000000000000000, 0.0000000000000000000, 1.000000000000000000 ) ) ;
#22 = CARTESIAN_POINT ( 'NONE',  ( 0.0000000000000000000, 0.0000000000000000000, 109.5000000000000000 ) ) ;
#23 = ORIENTED_EDGE ( 'NONE', *, *, #257, .F. ) ;
#24 = PRODUCT_CONTEXT ( 'NONE', #106, 'mechanical' ) ;
#25 = CARTESIAN_POINT ( 'NONE',  ( 191.2499999999999700, -7.000000000000000000, -191.2499999999999700 ) ) ;
#26 = PLANE ( 'NONE',  #254 ) ;
#27 = DIRECTION ( 'NONE',  ( 1.000000000000000000, 0.0000000000000000000, 0.0000000000000000000 ) ) ;
#28 = FACE_OUTER_BOUND ( 'NONE', #37, .T. ) ;
#29 = CIRCLE ( 'NONE', #78, 109.5000000000000000 ) ;
#30 = DIRECTION ( 'NONE',  ( -0.0000000000000000000, 1.000000000000000000, -0.0000000000000000000 ) ) ;
#31 = CARTESIAN_POINT ( 'NONE',  ( -191.2499999999999700, -7.000000000000000000, 191.2500000000000300 ) ) ;
#32 = ORIENTED_EDGE ( 'NONE', *, *, #170, .F. ) ;
#33 = CARTESIAN_POINT ( 'NONE',  ( -191.2500000000000300, -7.000000000000000000, -191.2499999999999700 ) ) ;
#34 = DIRECTION ( 'NONE',  ( 1.000000000000000000, 0.0000000000000000000, -1.451271927614584000E-016 ) ) ;
#35 = VERTEX_POINT ( 'NONE', #245 ) ;
#36 = CIRCLE ( 'NONE', #135, 109.5000000000000000 ) ;
#37 = EDGE_LOOP ( 'NONE', ( #12, #19, #207, #32 ) ) ;
#38 = UNCERTAINTY_MEASURE_WITH_UNIT (LENGTH_MEASURE( 1.000000000000000100E-005 ), #171, 'distance_accuracy_value', 'NONE');
#39 = SURFACE_STYLE_USAGE ( .BOTH. , #197 ) ;
#40 = MECHANICAL_DESIGN_GEOMETRIC_PRESENTATION_REPRESENTATION (  '', ( #203 ), #276 ) ;
#41 = ORIENTED_EDGE ( 'NONE', *, *, #128, .T. ) ;
#42 = APPLICATION_PROTOCOL_DEFINITION ( 'draft international standard', 'automotive_design', 1998, #105 ) ;
#43 = VERTEX_POINT ( 'NONE', #8 ) ;
#44 = CARTESIAN_POINT ( 'NONE',  ( 1.340988245066351800E-014, 0.0000000000000000000, -109.5000000000000000 ) ) ;
#45 = EDGE_CURVE ( 'NONE', #102, #274, #126, .T. ) ;
#46 = UNCERTAINTY_MEASURE_WITH_UNIT (LENGTH_MEASURE( 1.000000000000000100E-005 ), #177, 'distance_accuracy_value', 'NONE');
#47 = DIRECTION ( 'NONE',  ( 0.0000000000000000000, 0.0000000000000000000, 1.000000000000000000 ) ) ;
#48 = CARTESIAN_POINT ( 'NONE',  ( -191.2499999999999700, 0.0000000000000000000, 191.2500000000000300 ) ) ;
#49 = ORIENTED_EDGE ( 'NONE', *, *, #175, .F. ) ;
#50 = CARTESIAN_POINT ( 'NONE',  ( 0.0000000000000000000, -7.000000000000000000, 109.5000000000000000 ) ) ;
#51 = CARTESIAN_POINT ( 'NONE',  ( -191.2499999999999700, 0.0000000000000000000, 191.2500000000000300 ) ) ;
#52 =( GEOMETRIC_REPRESENTATION_CONTEXT ( 3 ) GLOBAL_UNCERTAINTY_ASSIGNED_CONTEXT ( ( #38 ) ) GLOBAL_UNIT_ASSIGNED_CONTEXT ( ( #171, #103, #77 ) ) REPRESENTATION_CONTEXT ( 'NONE', 'WORKASPACE' ) );
#53 = ADVANCED_FACE ( 'NONE', ( #213 ), #205, .T. ) ;
#54 = CARTESIAN_POINT ( 'NONE',  ( 1.340988245066351800E-014, -7.000000000000000000, -109.5000000000000000 ) ) ;
#55 = ORIENTED_EDGE ( 'NONE', *, *, #147, .F. ) ;
#56 = EDGE_CURVE ( 'NONE', #186, #249, #101, .T. ) ;
#57 = ORIENTED_EDGE ( 'NONE', *, *, #56, .T. ) ;
#58 = CARTESIAN_POINT ( 'NONE',  ( -191.2500000000000300, 0.0000000000000000000, -191.2499999999999700 ) ) ;
#59 = DIRECTION ( 'NONE',  ( -1.451271927614584000E-016, -0.0000000000000000000, -1.000000000000000000 ) ) ;
#60 = VERTEX_POINT ( 'NONE', #51 ) ;
#61 = LINE ( 'NONE', #160, #154 ) ;
#62 = DIRECTION ( 'NONE',  ( 0.0000000000000000000, 1.000000000000000000, 0.0000000000000000000 ) ) ;
#63 = CARTESIAN_POINT ( 'NONE',  ( 191.2499999999999700, -7.000000000000000000, -191.2499999999999700 ) ) ;
#64 = DIRECTION ( 'NONE',  ( 0.0000000000000000000, 1.000000000000000000, 0.0000000000000000000 ) ) ;
#65 = ADVANCED_FACE ( 'NONE', ( #233 ), #268, .F. ) ;
#66 = DIRECTION ( 'NONE',  ( 0.0000000000000000000, 0.0000000000000000000, 1.000000000000000000 ) ) ;
#67 = ADVANCED_FACE ( 'NONE', ( #273 ), #222, .T. ) ;
#68 = EDGE_CURVE ( 'NONE', #151, #193, #87, .T. ) ;
#69 = ORIENTED_EDGE ( 'NONE', *, *, #239, .T. ) ;
#70 = LINE ( 'NONE', #261, #173 ) ;
#71 = PLANE ( 'NONE',  #89 ) ;
#72 = SURFACE_STYLE_USAGE ( .BOTH. , #94 ) ;
#73 = ADVANCED_FACE ( 'NONE', ( #127 ), #117, .T. ) ;
#74 = ADVANCED_FACE ( 'NONE', ( #9 ), #107, .F. ) ;
#75 = EDGE_CURVE ( 'NONE', #108, #102, #157, .T. ) ;
#76 = EDGE_LOOP ( 'NONE', ( #260, #168, #1, #82 ) ) ;
#77 =( NAMED_UNIT ( * ) SI_UNIT ( $, .STERADIAN. ) SOLID_ANGLE_UNIT ( ) );
#78 = AXIS2_PLACEMENT_3D ( 'NONE', #90, #200, #47 ) ;
#79 = EDGE_LOOP ( 'NONE', ( #134, #69, #17, #241 ) ) ;
#80 = VECTOR ( 'NONE', #27, 1000.000000000000000 ) ;
#81 = DIRECTION ( 'NONE',  ( 1.451271927614584000E-016, 0.0000000000000000000, 1.000000000000000000 ) ) ;
#82 = ORIENTED_EDGE ( 'NONE', *, *, #4, .T. ) ;
#83 = ORIENTED_EDGE ( 'NONE', *, *, #201, .T. ) ;
#84 = AXIS2_PLACEMENT_3D ( 'NONE', #142, #30, #21 ) ;
#85 = CARTESIAN_POINT ( 'NONE',  ( 191.2499999999999700, 0.0000000000000000000, -191.2499999999999700 ) ) ;
#86 = EDGE_LOOP ( 'NONE', ( #144, #190 ) ) ;
#87 = CIRCLE ( 'NONE', #174, 109.5000000000000000 ) ;
#88 = ADVANCED_FACE ( 'NONE', ( #191, #272 ), #71, .T. ) ;
#89 = AXIS2_PLACEMENT_3D ( 'NONE', #48, #139, #228 ) ;
#90 = CARTESIAN_POINT ( 'NONE',  ( 0.0000000000000000000, 0.0000000000000000000, 0.0000000000000000000 ) ) ;
#91 = ORIENTED_EDGE ( 'NONE', *, *, #128, .F. ) ;
#92 = DIRECTION ( 'NONE',  ( 0.0000000000000000000, 1.000000000000000000, 0.0000000000000000000 ) ) ;
#93 = ADVANCED_FACE ( 'NONE', ( #242, #28 ), #26, .F. ) ;
#94 = SURFACE_SIDE_STYLE ('',( #16 ) ) ;
#95 = ADVANCED_FACE ( 'NONE', ( #115 ), #163, .T. ) ;
#96 = AXIS2_PLACEMENT_3D ( 'NONE', #5, #111, #275 ) ;
#97 = EDGE_LOOP ( 'NONE', ( #49, #83, #98, #55 ) ) ;
#98 = ORIENTED_EDGE ( 'NONE', *, *, #195, .T. ) ;
#99 = DIRECTION ( 'NONE',  ( 0.0000000000000000000, 1.000000000000000000, 0.0000000000000000000 ) ) ;
#100 = ORIENTED_EDGE ( 'NONE', *, *, #75, .T. ) ;
#101 = CIRCLE ( 'NONE', #180, 109.5000000000000000 ) ;
#102 = VERTEX_POINT ( 'NONE', #181 ) ;
#103 =( NAMED_UNIT ( * ) PLANE_ANGLE_UNIT ( ) SI_UNIT ( $, .RADIAN. ) );
#104 = ORIENTED_EDGE ( 'NONE', *, *, #45, .F. ) ;
#105 = APPLICATION_CONTEXT ( 'automotive_design' ) ;
#106 = APPLICATION_CONTEXT ( 'automotive_design' ) ;
#107 = CYLINDRICAL_SURFACE ( 'NONE', #84, 109.5000000000000000 ) ;
#108 = VERTEX_POINT ( 'NONE', #25 ) ;
#109 = LINE ( 'NONE', #63, #121 ) ;
#110 = EDGE_CURVE ( 'NONE', #35, #43, #61, .T. ) ;
#111 = DIRECTION ( 'NONE',  ( 0.0000000000000000000, 0.0000000000000000000, 1.000000000000000000 ) ) ;
#112 = PRODUCT ( '7400517_KSTP1', '7400517_KSTP1', '', ( #24 ) ) ;
#113 = EDGE_CURVE ( 'NONE', #274, #60, #70, .T. ) ;
#114 = CARTESIAN_POINT ( 'NONE',  ( -191.2499999999999700, -7.000000000000000000, 191.2500000000000300 ) ) ;
#115 = FACE_OUTER_BOUND ( 'NONE', #218, .T. ) ;
#116 = DIRECTION ( 'NONE',  ( 0.0000000000000000000, -0.0000000000000000000, 1.000000000000000000 ) ) ;
#117 = PLANE ( 'NONE',  #119 ) ;
#118 = DIRECTION ( 'NONE',  ( 1.000000000000000000, 0.0000000000000000000, -0.0000000000000000000 ) ) ;
#119 = AXIS2_PLACEMENT_3D ( 'NONE', #31, #246, #118 ) ;
#120 = ORIENTED_EDGE ( 'NONE', *, *, #147, .T. ) ;
#121 = VECTOR ( 'NONE', #64, 1000.000000000000000 ) ;
#122 = CARTESIAN_POINT ( 'NONE',  ( 0.0000000000000000000, 0.0000000000000000000, 0.0000000000000000000 ) ) ;
#123 =( LENGTH_UNIT ( ) NAMED_UNIT ( * ) SI_UNIT ( .MILLI., .METRE. ) );
#124 = PRODUCT_DEFINITION_CONTEXT ( 'detailed design', #105, 'design' ) ;
#125 =( NAMED_UNIT ( * ) PLANE_ANGLE_UNIT ( ) SI_UNIT ( $, .RADIAN. ) );
#126 = LINE ( 'NONE', #179, #221 ) ;
#127 = FACE_OUTER_BOUND ( 'NONE', #153, .T. ) ;
#128 = EDGE_CURVE ( 'NONE', #226, #60, #199, .T. ) ;
#129 = ORIENTED_EDGE ( 'NONE', *, *, #239, .F. ) ;
#130 = VECTOR ( 'NONE', #236, 1000.000000000000000 ) ;
#131 = PRESENTATION_LAYER_ASSIGNMENT (  '', '', ( #188 ) ) ;
#132 =( NAMED_UNIT ( * ) SI_UNIT ( $, .STERADIAN. ) SOLID_ANGLE_UNIT ( ) );
#133 = DIRECTION ( 'NONE',  ( 0.0000000000000000000, 1.000000000000000000, 0.0000000000000000000 ) ) ;
#134 = ORIENTED_EDGE ( 'NONE', *, *, #113, .T. ) ;
#135 = AXIS2_PLACEMENT_3D ( 'NONE', #234, #99, #148 ) ;
#136 = DIRECTION ( 'NONE',  ( 0.0000000000000000000, 1.000000000000000000, 0.0000000000000000000 ) ) ;
#137 = DIRECTION ( 'NONE',  ( 1.000000000000000000, 0.0000000000000000000, 0.0000000000000000000 ) ) ;
#138 = DIRECTION ( 'NONE',  ( -1.451271927614584000E-016, -0.0000000000000000000, -1.000000000000000000 ) ) ;
#139 = DIRECTION ( 'NONE',  ( 0.0000000000000000000, 1.000000000000000000, 0.0000000000000000000 ) ) ;
#140 = CLOSED_SHELL ( 'NONE', ( #65, #95, #67, #53, #73, #93, #88, #74 ) ) ;
#141 = PRESENTATION_STYLE_ASSIGNMENT (( #72 ) ) ;
#142 = CARTESIAN_POINT ( 'NONE',  ( 0.0000000000000000000, -7.000000000000000000, 0.0000000000000000000 ) ) ;
#143 = CARTESIAN_POINT ( 'NONE',  ( 1.340988245066351800E-014, -7.000000000000000000, -109.5000000000000000 ) ) ;
#144 = ORIENTED_EDGE ( 'NONE', *, *, #68, .T. ) ;
#145 = LINE ( 'NONE', #240, #269 ) ;
#146 = DIRECTION ( 'NONE',  ( -0.0000000000000000000, 1.000000000000000000, -0.0000000000000000000 ) ) ;
#147 = EDGE_CURVE ( 'NONE', #151, #186, #259, .T. ) ;
#148 = DIRECTION ( 'NONE',  ( 0.0000000000000000000, 0.0000000000000000000, 1.000000000000000000 ) ) ;
#149 = CARTESIAN_POINT ( 'NONE',  ( 0.0000000000000000000, -7.000000000000000000, 0.0000000000000000000 ) ) ;
#150 = VERTEX_POINT ( 'NONE', #85 ) ;
#151 = VERTEX_POINT ( 'NONE', #248 ) ;
#152 = AXIS2_PLACEMENT_3D ( 'NONE', #243, #202, #209 ) ;
#153 = EDGE_LOOP ( 'NONE', ( #129, #91, #264, #204 ) ) ;
#154 = VECTOR ( 'NONE', #136, 1000.000000000000000 ) ;
#155 = VECTOR ( 'NONE', #137, 1000.000000000000000 ) ;
#156 = EDGE_LOOP ( 'NONE', ( #237, #182, #120, #57 ) ) ;
#157 = LINE ( 'NONE', #263, #172 ) ;
#158 = EDGE_CURVE ( 'NONE', #43, #150, #15, .T. ) ;
#159 = DIRECTION ( 'NONE',  ( 1.451271927614584000E-016, 0.0000000000000000000, 1.000000000000000000 ) ) ;
#160 = CARTESIAN_POINT ( 'NONE',  ( 191.2500000000000300, -7.000000000000000000, 191.2500000000000300 ) ) ;
#161 = MECHANICAL_DESIGN_GEOMETRIC_PRESENTATION_REPRESENTATION (  '', ( #188 ), #178 ) ;
#162 = ORIENTED_EDGE ( 'NONE', *, *, #4, .F. ) ;
#163 = PLANE ( 'NONE',  #152 ) ;
#164 = PRODUCT_DEFINITION_SHAPE ( 'NONE', 'NONE',  #210 ) ;
#165 = DIRECTION ( 'NONE',  ( -1.000000000000000000, -0.0000000000000000000, -0.0000000000000000000 ) ) ;
#166 = DIRECTION ( 'NONE',  ( 0.0000000000000000000, 0.0000000000000000000, -1.000000000000000000 ) ) ;
#167 = CARTESIAN_POINT ( 'NONE',  ( 191.2499999999999700, -7.000000000000000000, -191.2499999999999700 ) ) ;
#168 = ORIENTED_EDGE ( 'NONE', *, *, #110, .F. ) ;
#169 = CARTESIAN_POINT ( 'NONE',  ( -191.2499999999999700, -7.000000000000000000, 191.2500000000000300 ) ) ;
#170 = EDGE_CURVE ( 'NONE', #226, #35, #194, .T. ) ;
#171 =( LENGTH_UNIT ( ) NAMED_UNIT ( * ) SI_UNIT ( .MILLI., .METRE. ) );
#172 = VECTOR ( 'NONE', #165, 1000.000000000000000 ) ;
#173 = VECTOR ( 'NONE', #159, 1000.000000000000000 ) ;
#174 = AXIS2_PLACEMENT_3D ( 'NONE', #229, #267, #66 ) ;
#175 = EDGE_CURVE ( 'NONE', #193, #151, #36, .T. ) ;
#176 = LINE ( 'NONE', #196, #155 ) ;
#177 =( LENGTH_UNIT ( ) NAMED_UNIT ( * ) SI_UNIT ( .MILLI., .METRE. ) );
#178 =( GEOMETRIC_REPRESENTATION_CONTEXT ( 3 ) GLOBAL_UNCERTAINTY_ASSIGNED_CONTEXT ( ( #232 ) ) GLOBAL_UNIT_ASSIGNED_CONTEXT ( ( #123, #212, #252 ) ) REPRESENTATION_CONTEXT ( 'NONE', 'WORKASPACE' ) );
#179 = CARTESIAN_POINT ( 'NONE',  ( -191.2500000000000300, -7.000000000000000000, -191.2499999999999700 ) ) ;
#180 = AXIS2_PLACEMENT_3D ( 'NONE', #122, #133, #258 ) ;
#181 = CARTESIAN_POINT ( 'NONE',  ( -191.2500000000000300, -7.000000000000000000, -191.2499999999999700 ) ) ;
#182 = ORIENTED_EDGE ( 'NONE', *, *, #68, .F. ) ;
#183 = MANIFOLD_SOLID_BREP ( 'Schnitt-Linear austragen2', #140 ) ;
#184 = DIRECTION ( 'NONE',  ( -1.000000000000000000, 0.0000000000000000000, -0.0000000000000000000 ) ) ;
#185 = CARTESIAN_POINT ( 'NONE',  ( 191.2499999999999700, 0.0000000000000000000, -191.2499999999999700 ) ) ;
#186 = VERTEX_POINT ( 'NONE', #22 ) ;
#187 = LINE ( 'NONE', #143, #230 ) ;
#188 = STYLED_ITEM ( 'NONE', ( #141 ), #183 ) ;
#189 = EDGE_LOOP ( 'NONE', ( #255, #198 ) ) ;
#190 = ORIENTED_EDGE ( 'NONE', *, *, #175, .T. ) ;
#191 = FACE_BOUND ( 'NONE', #189, .T. ) ;
#192 = EDGE_CURVE ( 'NONE', #35, #108, #145, .T. ) ;
#193 = VERTEX_POINT ( 'NONE', #54 ) ;
#194 = LINE ( 'NONE', #169, #80 ) ;
#195 = EDGE_CURVE ( 'NONE', #249, #186, #29, .T. ) ;
#196 = CARTESIAN_POINT ( 'NONE',  ( -191.2499999999999700, 0.0000000000000000000, 191.2500000000000300 ) ) ;
#197 = SURFACE_SIDE_STYLE ('',( #208 ) ) ;
#198 = ORIENTED_EDGE ( 'NONE', *, *, #195, .F. ) ;
#199 = LINE ( 'NONE', #6, #250 ) ;
#200 = DIRECTION ( 'NONE',  ( 0.0000000000000000000, 1.000000000000000000, 0.0000000000000000000 ) ) ;
#201 = EDGE_CURVE ( 'NONE', #193, #249, #187, .T. ) ;
#202 = DIRECTION ( 'NONE',  ( -1.000000000000000000, 0.0000000000000000000, 1.451271927614584000E-016 ) ) ;
#203 = STYLED_ITEM ( 'NONE', ( #215 ), #11 ) ;
#204 = ORIENTED_EDGE ( 'NONE', *, *, #110, .T. ) ;
#205 = PLANE ( 'NONE',  #231 ) ;
#206 = COLOUR_RGB ( '',1.000000000000000000, 1.000000000000000000, 1.000000000000000000 ) ;
#207 = ORIENTED_EDGE ( 'NONE', *, *, #192, .F. ) ;
#208 = SURFACE_STYLE_FILL_AREA ( #3 ) ;
#209 = DIRECTION ( 'NONE',  ( 1.451271927614584000E-016, 0.0000000000000000000, 1.000000000000000000 ) ) ;
#210 = PRODUCT_DEFINITION ( 'UNKNOWN', '', #224, #124 ) ;
#211 = AXIS2_PLACEMENT_3D ( 'NONE', #149, #266, #7 ) ;
#212 =( NAMED_UNIT ( * ) PLANE_ANGLE_UNIT ( ) SI_UNIT ( $, .RADIAN. ) );
#213 = FACE_OUTER_BOUND ( 'NONE', #76, .T. ) ;
#214 = EDGE_LOOP ( 'NONE', ( #23, #162, #100, #223 ) ) ;
#215 = PRESENTATION_STYLE_ASSIGNMENT (( #39 ) ) ;
#216 = AXIS2_PLACEMENT_3D ( 'NONE', #2, #166, #184 ) ;
#217 = EDGE_CURVE ( 'NONE', #102, #226, #227, .T. ) ;
#218 = EDGE_LOOP ( 'NONE', ( #20, #104, #270, #41 ) ) ;
#219 = VECTOR ( 'NONE', #81, 1000.000000000000000 ) ;
#220 = SHAPE_DEFINITION_REPRESENTATION ( #164, #11 ) ;
#221 = VECTOR ( 'NONE', #92, 1000.000000000000000 ) ;
#222 = PLANE ( 'NONE',  #216 ) ;
#223 = ORIENTED_EDGE ( 'NONE', *, *, #45, .T. ) ;
#224 = PRODUCT_DEFINITION_FORMATION_WITH_SPECIFIED_SOURCE ( 'ANY', '', #112, .NOT_KNOWN. ) ;
#225 = FILL_AREA_STYLE_COLOUR ( '', #206 ) ;
#226 = VERTEX_POINT ( 'NONE', #114 ) ;
#227 = LINE ( 'NONE', #33, #219 ) ;
#228 = DIRECTION ( 'NONE',  ( 0.0000000000000000000, -0.0000000000000000000, 1.000000000000000000 ) ) ;
#229 = CARTESIAN_POINT ( 'NONE',  ( 0.0000000000000000000, -7.000000000000000000, 0.0000000000000000000 ) ) ;
#230 = VECTOR ( 'NONE', #247, 1000.000000000000000 ) ;
#231 = AXIS2_PLACEMENT_3D ( 'NONE', #167, #34, #14 ) ;
#232 = UNCERTAINTY_MEASURE_WITH_UNIT (LENGTH_MEASURE( 1.000000000000000100E-005 ), #123, 'distance_accuracy_value', 'NONE');
#233 = FACE_OUTER_BOUND ( 'NONE', #97, .T. ) ;
#234 = CARTESIAN_POINT ( 'NONE',  ( 0.0000000000000000000, -7.000000000000000000, 0.0000000000000000000 ) ) ;
#235 = APPLICATION_PROTOCOL_DEFINITION ( 'draft international standard', 'automotive_design', 1998, #106 ) ;
#236 = DIRECTION ( 'NONE',  ( -1.000000000000000000, -0.0000000000000000000, -0.0000000000000000000 ) ) ;
#237 = ORIENTED_EDGE ( 'NONE', *, *, #201, .F. ) ;
#238 = PRODUCT_RELATED_PRODUCT_CATEGORY ( 'part', '', ( #112 ) ) ;
#239 = EDGE_CURVE ( 'NONE', #60, #43, #176, .T. ) ;
#240 = CARTESIAN_POINT ( 'NONE',  ( 191.2499999999999700, -7.000000000000000000, -191.2499999999999700 ) ) ;
#241 = ORIENTED_EDGE ( 'NONE', *, *, #257, .T. ) ;
#242 = FACE_BOUND ( 'NONE', #86, .T. ) ;
#243 = CARTESIAN_POINT ( 'NONE',  ( -191.2500000000000300, -7.000000000000000000, -191.2499999999999700 ) ) ;
#244 = LINE ( 'NONE', #262, #130 ) ;
#245 = CARTESIAN_POINT ( 'NONE',  ( 191.2500000000000300, -7.000000000000000000, 191.2500000000000300 ) ) ;
#246 = DIRECTION ( 'NONE',  ( 0.0000000000000000000, 0.0000000000000000000, 1.000000000000000000 ) ) ;
#247 = DIRECTION ( 'NONE',  ( -0.0000000000000000000, 1.000000000000000000, -0.0000000000000000000 ) ) ;
#248 = CARTESIAN_POINT ( 'NONE',  ( 0.0000000000000000000, -7.000000000000000000, 109.5000000000000000 ) ) ;
#249 = VERTEX_POINT ( 'NONE', #44 ) ;
#250 = VECTOR ( 'NONE', #62, 1000.000000000000000 ) ;
#251 = FILL_AREA_STYLE_COLOUR ( '', #256 ) ;
#252 =( NAMED_UNIT ( * ) SI_UNIT ( $, .STERADIAN. ) SOLID_ANGLE_UNIT ( ) );
#253 = VECTOR ( 'NONE', #138, 1000.000000000000000 ) ;
#254 = AXIS2_PLACEMENT_3D ( 'NONE', #265, #10, #116 ) ;
#255 = ORIENTED_EDGE ( 'NONE', *, *, #56, .F. ) ;
#256 = COLOUR_RGB ( '',1.000000000000000000, 1.000000000000000000, 1.000000000000000000 ) ;
#257 = EDGE_CURVE ( 'NONE', #150, #274, #244, .T. ) ;
#258 = DIRECTION ( 'NONE',  ( 0.0000000000000000000, 0.0000000000000000000, 1.000000000000000000 ) ) ;
#259 = LINE ( 'NONE', #50, #18 ) ;
#260 = ORIENTED_EDGE ( 'NONE', *, *, #158, .F. ) ;
#261 = CARTESIAN_POINT ( 'NONE',  ( -191.2500000000000300, 0.0000000000000000000, -191.2499999999999700 ) ) ;
#262 = CARTESIAN_POINT ( 'NONE',  ( -191.2500000000000300, 0.0000000000000000000, -191.2499999999999700 ) ) ;
#263 = CARTESIAN_POINT ( 'NONE',  ( -191.2500000000000300, -7.000000000000000000, -191.2499999999999700 ) ) ;
#264 = ORIENTED_EDGE ( 'NONE', *, *, #170, .T. ) ;
#265 = CARTESIAN_POINT ( 'NONE',  ( -191.2499999999999700, -7.000000000000000000, 191.2500000000000300 ) ) ;
#266 = DIRECTION ( 'NONE',  ( -0.0000000000000000000, 1.000000000000000000, -0.0000000000000000000 ) ) ;
#267 = DIRECTION ( 'NONE',  ( 0.0000000000000000000, 1.000000000000000000, 0.0000000000000000000 ) ) ;
#268 = CYLINDRICAL_SURFACE ( 'NONE', #211, 109.5000000000000000 ) ;
#269 = VECTOR ( 'NONE', #59, 1000.000000000000000 ) ;
#270 = ORIENTED_EDGE ( 'NONE', *, *, #217, .T. ) ;
#271 = FILL_AREA_STYLE ('',( #251 ) ) ;
#272 = FACE_OUTER_BOUND ( 'NONE', #79, .T. ) ;
#273 = FACE_OUTER_BOUND ( 'NONE', #214, .T. ) ;
#274 = VERTEX_POINT ( 'NONE', #58 ) ;
#275 = DIRECTION ( 'NONE',  ( 1.000000000000000000, 0.0000000000000000000, 0.0000000000000000000 ) ) ;
#276 =( GEOMETRIC_REPRESENTATION_CONTEXT ( 3 ) GLOBAL_UNCERTAINTY_ASSIGNED_CONTEXT ( ( #46 ) ) GLOBAL_UNIT_ASSIGNED_CONTEXT ( ( #177, #125, #132 ) ) REPRESENTATION_CONTEXT ( 'NONE', 'WORKASPACE' ) );
ENDSEC;
END-ISO-10303-21;
