ISO-10303-21;
HEADER;
FILE_DESCRIPTION (( 'STEP AP214' ),
    '1' );
FILE_NAME ('7400509_KSTP1.stp',
    '2016-10-12T07:57:02',
    ( '' ),
    ( '' ),
    'SwSTEP 2.0',
    'SolidWorks 2016',
    '' );
FILE_SCHEMA (( 'AUTOMOTIVE_DESIGN' ));
ENDSEC;

DATA;
#1 = LINE ( 'NONE', #99, #20 ) ;
#2 = SURFACE_STYLE_USAGE ( .BOTH. , #128 ) ;
#3 = ADVANCED_FACE ( 'NONE', ( #122 ), #112, .T. ) ;
#4 =( LENGTH_UNIT ( ) NAMED_UNIT ( * ) SI_UNIT ( .MILLI., .METRE. ) );
#5 = ORIENTED_EDGE ( 'NONE', *, *, #187, .T. ) ;
#6 = VERTEX_POINT ( 'NONE', #136 ) ;
#7 = FILL_AREA_STYLE_COLOUR ( '', #321 ) ;
#8 = CARTESIAN_POINT ( 'NONE',  ( -102.5000000000000400, -333.6850618393257300, -129.0999999999999900 ) ) ;
#9 =( GEOMETRIC_REPRESENTATION_CONTEXT ( 3 ) GLOBAL_UNCERTAINTY_ASSIGNED_CONTEXT ( ( #92 ) ) GLOBAL_UNIT_ASSIGNED_CONTEXT ( ( #174, #289, #108 ) ) REPRESENTATION_CONTEXT ( 'NONE', 'WORKASPACE' ) );
#10 = DIRECTION ( 'NONE',  ( -0.0000000000000000000, 1.000000000000000000, -0.0000000000000000000 ) ) ;
#11 = ORIENTED_EDGE ( 'NONE', *, *, #155, .F. ) ;
#12 = LINE ( 'NONE', #175, #301 ) ;
#13 = DIRECTION ( 'NONE',  ( -1.000000000000000000, 0.0000000000000000000, 0.0000000000000000000 ) ) ;
#14 = DIRECTION ( 'NONE',  ( 0.0000000000000000000, 1.000000000000000000, 0.0000000000000000000 ) ) ;
#15 = CARTESIAN_POINT ( 'NONE',  ( -191.2500000000000300, 0.0000000000000000000, -191.2499999999999700 ) ) ;
#16 = PLANE ( 'NONE',  #97 ) ;
#17 = DIRECTION ( 'NONE',  ( -0.0000000000000000000, 1.000000000000000000, -0.0000000000000000000 ) ) ;
#18 = UNCERTAINTY_MEASURE_WITH_UNIT (LENGTH_MEASURE( 1.000000000000000100E-005 ), #4, 'distance_accuracy_value', 'NONE');
#19 = VECTOR ( 'NONE', #153, 1000.000000000000000 ) ;
#20 = VECTOR ( 'NONE', #151, 1000.000000000000000 ) ;
#21 = CARTESIAN_POINT ( 'NONE',  ( -191.2500000000000300, -4.000000000000000000, -191.2499999999999700 ) ) ;
#22 = ORIENTED_EDGE ( 'NONE', *, *, #324, .T. ) ;
#23 = CARTESIAN_POINT ( 'NONE',  ( 191.2499999999999700, -4.000000000000000000, -191.2499999999999700 ) ) ;
#24 = FACE_OUTER_BOUND ( 'NONE', #274, .T. ) ;
#25 = VERTEX_POINT ( 'NONE', #198 ) ;
#26 = SHAPE_DEFINITION_REPRESENTATION ( #316, #193 ) ;
#27 =( NAMED_UNIT ( * ) SI_UNIT ( $, .STERADIAN. ) SOLID_ANGLE_UNIT ( ) );
#28 = VERTEX_POINT ( 'NONE', #298 ) ;
#29 = SURFACE_SIDE_STYLE ('',( #251 ) ) ;
#30 = PRESENTATION_STYLE_ASSIGNMENT (( #2 ) ) ;
#31 = VERTEX_POINT ( 'NONE', #167 ) ;
#32 = EDGE_CURVE ( 'NONE', #6, #31, #192, .T. ) ;
#33 = ORIENTED_EDGE ( 'NONE', *, *, #155, .T. ) ;
#34 = FACE_OUTER_BOUND ( 'NONE', #265, .T. ) ;
#35 = DIRECTION ( 'NONE',  ( 1.000000000000000000, 0.0000000000000000000, 0.0000000000000000000 ) ) ;
#36 = VECTOR ( 'NONE', #334, 1000.000000000000000 ) ;
#37 = DIRECTION ( 'NONE',  ( -1.451271927614584000E-016, -0.0000000000000000000, -1.000000000000000000 ) ) ;
#38 = CARTESIAN_POINT ( 'NONE',  ( 102.5000000000000000, -4.000000000000003600, -129.0999999999999900 ) ) ;
#39 = CARTESIAN_POINT ( 'NONE',  ( 102.5000000000000000, 0.0000000000000000000, -129.0999999999999900 ) ) ;
#40 = DIRECTION ( 'NONE',  ( 0.0000000000000000000, 0.0000000000000000000, 1.000000000000000000 ) ) ;
#41 = CARTESIAN_POINT ( 'NONE',  ( -102.5000000000000300, -4.000000000000000000, 129.0999999999999900 ) ) ;
#42 = PLANE ( 'NONE',  #220 ) ;
#43 = CARTESIAN_POINT ( 'NONE',  ( -191.2499999999999700, -4.000000000000000000, 191.2500000000000300 ) ) ;
#44 = STYLED_ITEM ( 'NONE', ( #184 ), #193 ) ;
#45 = EDGE_LOOP ( 'NONE', ( #127, #5, #218, #120 ) ) ;
#46 = CARTESIAN_POINT ( 'NONE',  ( 102.5000000000000000, -4.000000000000003600, -129.0999999999999900 ) ) ;
#47 = FACE_BOUND ( 'NONE', #186, .T. ) ;
#48 = CARTESIAN_POINT ( 'NONE',  ( -191.2500000000000300, 0.0000000000000000000, -191.2499999999999700 ) ) ;
#49 = EDGE_CURVE ( 'NONE', #231, #85, #102, .T. ) ;
#50 = EDGE_LOOP ( 'NONE', ( #11, #57, #335, #272 ) ) ;
#51 =( NAMED_UNIT ( * ) PLANE_ANGLE_UNIT ( ) SI_UNIT ( $, .RADIAN. ) );
#52 = EDGE_CURVE ( 'NONE', #173, #28, #133, .T. ) ;
#53 = APPLICATION_PROTOCOL_DEFINITION ( 'draft international standard', 'automotive_design', 1998, #241 ) ;
#54 = LINE ( 'NONE', #8, #107 ) ;
#55 = APPLICATION_CONTEXT ( 'automotive_design' ) ;
#56 = ADVANCED_FACE ( 'NONE', ( #47, #62 ), #264, .F. ) ;
#57 = ORIENTED_EDGE ( 'NONE', *, *, #142, .F. ) ;
#58 = VECTOR ( 'NONE', #64, 1000.000000000000000 ) ;
#59 = ORIENTED_EDGE ( 'NONE', *, *, #135, .F. ) ;
#60 = AXIS2_PLACEMENT_3D ( 'NONE', #23, #124, #281 ) ;
#61 = ORIENTED_EDGE ( 'NONE', *, *, #164, .T. ) ;
#62 = FACE_OUTER_BOUND ( 'NONE', #130, .T. ) ;
#63 = MECHANICAL_DESIGN_GEOMETRIC_PRESENTATION_REPRESENTATION (  '', ( #123 ), #219 ) ;
#64 = DIRECTION ( 'NONE',  ( -1.000000000000000000, -0.0000000000000000000, -0.0000000000000000000 ) ) ;
#65 = ORIENTED_EDGE ( 'NONE', *, *, #68, .T. ) ;
#66 = DIRECTION ( 'NONE',  ( -0.0000000000000000000, 0.0000000000000000000, -1.000000000000000000 ) ) ;
#67 = CARTESIAN_POINT ( 'NONE',  ( -102.5000000000000400, 0.0000000000000000000, -129.0999999999999900 ) ) ;
#68 = EDGE_CURVE ( 'NONE', #31, #238, #262, .T. ) ;
#69 = DIRECTION ( 'NONE',  ( 1.000000000000000000, -0.0000000000000000000, -0.0000000000000000000 ) ) ;
#70 = LINE ( 'NONE', #201, #261 ) ;
#71 = VERTEX_POINT ( 'NONE', #154 ) ;
#72 = DIRECTION ( 'NONE',  ( 1.451271927614584000E-016, 0.0000000000000000000, 1.000000000000000000 ) ) ;
#73 = AXIS2_PLACEMENT_3D ( 'NONE', #115, #40, #306 ) ;
#74 = CARTESIAN_POINT ( 'NONE',  ( 191.2499999999999700, 0.0000000000000000000, -191.2499999999999700 ) ) ;
#75 = FILL_AREA_STYLE ('',( #312 ) ) ;
#76 = VERTEX_POINT ( 'NONE', #206 ) ;
#77 = PRODUCT_CONTEXT ( 'NONE', #55, 'mechanical' ) ;
#78 = ADVANCED_FACE ( 'NONE', ( #199 ), #205, .F. ) ;
#79 = APPLICATION_PROTOCOL_DEFINITION ( 'draft international standard', 'automotive_design', 1998, #55 ) ;
#80 = VECTOR ( 'NONE', #35, 1000.000000000000000 ) ;
#81 = ORIENTED_EDGE ( 'NONE', *, *, #164, .F. ) ;
#82 = DIRECTION ( 'NONE',  ( 1.451271927614584000E-016, 0.0000000000000000000, 1.000000000000000000 ) ) ;
#83 = ORIENTED_EDGE ( 'NONE', *, *, #32, .T. ) ;
#84 = DIRECTION ( 'NONE',  ( -0.0000000000000000000, 1.000000000000000000, -0.0000000000000000000 ) ) ;
#85 = VERTEX_POINT ( 'NONE', #285 ) ;
#86 = LINE ( 'NONE', #237, #284 ) ;
#88 = ORIENTED_EDGE ( 'NONE', *, *, #135, .T. ) ;
#87 = CARTESIAN_POINT ( 'NONE',  ( 191.2500000000000300, -4.000000000000000000, 191.2500000000000300 ) ) ;
#89 = CARTESIAN_POINT ( 'NONE',  ( 102.5000000000000000, 0.0000000000000000000, -129.0999999999999900 ) ) ;
#90 = EDGE_CURVE ( 'NONE', #76, #98, #157, .T. ) ;
#91 = CARTESIAN_POINT ( 'NONE',  ( 102.5000000000000000, -333.6850618393257300, -129.0999999999999900 ) ) ;
#92 = UNCERTAINTY_MEASURE_WITH_UNIT (LENGTH_MEASURE( 1.000000000000000100E-005 ), #174, 'distance_accuracy_value', 'NONE');
#93 = ORIENTED_EDGE ( 'NONE', *, *, #187, .F. ) ;
#94 = DIRECTION ( 'NONE',  ( -1.000000000000000000, -0.0000000000000000000, -0.0000000000000000000 ) ) ;
#95 = DIRECTION ( 'NONE',  ( -1.000000000000000000, 0.0000000000000000000, 1.074964198901197600E-016 ) ) ;
#96 = DIRECTION ( 'NONE',  ( 0.0000000000000000000, -0.0000000000000000000, 1.000000000000000000 ) ) ;
#97 = AXIS2_PLACEMENT_3D ( 'NONE', #21, #308, #150 ) ;
#98 = VERTEX_POINT ( 'NONE', #279 ) ;
#99 = CARTESIAN_POINT ( 'NONE',  ( 191.2499999999999700, -4.000000000000000000, -191.2499999999999700 ) ) ;
#100 = ORIENTED_EDGE ( 'NONE', *, *, #273, .T. ) ;
#101 = CARTESIAN_POINT ( 'NONE',  ( 102.5000000000000300, -4.000000000000003600, 129.0999999999999900 ) ) ;
#102 = LINE ( 'NONE', #48, #311 ) ;
#103 = ORIENTED_EDGE ( 'NONE', *, *, #161, .T. ) ;
#104 = EDGE_CURVE ( 'NONE', #238, #173, #249, .T. ) ;
#105 = DIRECTION ( 'NONE',  ( 0.0000000000000000000, 0.0000000000000000000, 1.000000000000000000 ) ) ;
#106 = ADVANCED_FACE ( 'NONE', ( #244 ), #42, .F. ) ;
#107 = VECTOR ( 'NONE', #84, 1000.000000000000000 ) ;
#108 =( NAMED_UNIT ( * ) SI_UNIT ( $, .STERADIAN. ) SOLID_ANGLE_UNIT ( ) );
#109 = ORIENTED_EDGE ( 'NONE', *, *, #147, .T. ) ;
#110 = EDGE_LOOP ( 'NONE', ( #243, #100, #132, #103 ) ) ;
#111 = FACE_OUTER_BOUND ( 'NONE', #143, .T. ) ;
#112 = PLANE ( 'NONE',  #221 ) ;
#113 = ORIENTED_EDGE ( 'NONE', *, *, #32, .F. ) ;
#114 = VECTOR ( 'NONE', #14, 1000.000000000000000 ) ;
#115 = CARTESIAN_POINT ( 'NONE',  ( 102.5000000000000300, -333.6850618393257300, 129.0999999999999900 ) ) ;
#116 = LINE ( 'NONE', #182, #246 ) ;
#117 = DIRECTION ( 'NONE',  ( 1.074964198901197600E-016, 0.0000000000000000000, 1.000000000000000000 ) ) ;
#118 = CARTESIAN_POINT ( 'NONE',  ( 191.2500000000000300, -4.000000000000000000, 191.2500000000000300 ) ) ;
#119 = FACE_OUTER_BOUND ( 'NONE', #202, .T. ) ;
#120 = ORIENTED_EDGE ( 'NONE', *, *, #90, .F. ) ;
#121 = PLANE ( 'NONE',  #297 ) ;
#122 = FACE_OUTER_BOUND ( 'NONE', #163, .T. ) ;
#123 = STYLED_ITEM ( 'NONE', ( #30 ), #314 ) ;
#124 = DIRECTION ( 'NONE',  ( 1.000000000000000000, 0.0000000000000000000, -1.451271927614584000E-016 ) ) ;
#125 = LINE ( 'NONE', #67, #322 ) ;
#126 = DIRECTION ( 'NONE',  ( -1.000000000000000000, 0.0000000000000000000, 0.0000000000000000000 ) ) ;
#127 = ORIENTED_EDGE ( 'NONE', *, *, #305, .T. ) ;
#128 = SURFACE_SIDE_STYLE ('',( #145 ) ) ;
#129 =( NAMED_UNIT ( * ) SI_UNIT ( $, .STERADIAN. ) SOLID_ANGLE_UNIT ( ) );
#130 = EDGE_LOOP ( 'NONE', ( #113, #313, #81, #302 ) ) ;
#131 = CARTESIAN_POINT ( 'NONE',  ( 0.0000000000000000000, 0.0000000000000000000, 0.0000000000000000000 ) ) ;
#132 = ORIENTED_EDGE ( 'NONE', *, *, #52, .T. ) ;
#133 = LINE ( 'NONE', #74, #183 ) ;
#134 = LINE ( 'NONE', #46, #255 ) ;
#135 = EDGE_CURVE ( 'NONE', #31, #85, #224, .T. ) ;
#137 = ORIENTED_EDGE ( 'NONE', *, *, #49, .F. ) ;
#136 = CARTESIAN_POINT ( 'NONE',  ( -191.2500000000000300, -4.000000000000000000, -191.2499999999999700 ) ) ;
#138 = PRODUCT_DEFINITION_FORMATION_WITH_SPECIFIED_SOURCE ( 'ANY', '', #271, .NOT_KNOWN. ) ;
#139 = CARTESIAN_POINT ( 'NONE',  ( 102.5000000000000000, -333.6850618393257300, -129.0999999999999900 ) ) ;
#140 = LINE ( 'NONE', #257, #225 ) ;
#141 = AXIS2_PLACEMENT_3D ( 'NONE', #139, #300, #166 ) ;
#142 = EDGE_CURVE ( 'NONE', #98, #152, #217, .T. ) ;
#143 = EDGE_LOOP ( 'NONE', ( #245, #179, #61, #210 ) ) ;
#144 = CARTESIAN_POINT ( 'NONE',  ( -102.5000000000000300, -333.6850618393257300, 129.0999999999999900 ) ) ;
#145 = SURFACE_STYLE_FILL_AREA ( #75 ) ;
#146 = CARTESIAN_POINT ( 'NONE',  ( -191.2499999999999700, -4.000000000000000000, 191.2500000000000300 ) ) ;
#147 = EDGE_CURVE ( 'NONE', #291, #76, #223, .T. ) ;
#148 = DIRECTION ( 'NONE',  ( 0.0000000000000000000, 1.000000000000000000, 0.0000000000000000000 ) ) ;
#149 = VECTOR ( 'NONE', #17, 1000.000000000000000 ) ;
#150 = DIRECTION ( 'NONE',  ( 1.451271927614584000E-016, 0.0000000000000000000, 1.000000000000000000 ) ) ;
#151 = DIRECTION ( 'NONE',  ( 0.0000000000000000000, 1.000000000000000000, 0.0000000000000000000 ) ) ;
#152 = VERTEX_POINT ( 'NONE', #230 ) ;
#153 = DIRECTION ( 'NONE',  ( 1.000000000000000000, 0.0000000000000000000, 0.0000000000000000000 ) ) ;
#154 = CARTESIAN_POINT ( 'NONE',  ( -102.5000000000000300, 0.0000000000000000000, 129.0999999999999900 ) ) ;
#155 = EDGE_CURVE ( 'NONE', #152, #268, #196, .T. ) ;
#156 = DIRECTION ( 'NONE',  ( 0.0000000000000000000, 0.0000000000000000000, 1.000000000000000000 ) ) ;
#157 = LINE ( 'NONE', #259, #149 ) ;
#158 = ADVANCED_FACE ( 'NONE', ( #331, #247 ), #172, .T. ) ;
#159 = DIRECTION ( 'NONE',  ( 1.000000000000000000, 0.0000000000000000000, 0.0000000000000000000 ) ) ;
#160 = MECHANICAL_DESIGN_GEOMETRIC_PRESENTATION_REPRESENTATION (  '', ( #44 ), #338 ) ;
#161 = EDGE_CURVE ( 'NONE', #28, #231, #208, .T. ) ;
#162 = LINE ( 'NONE', #101, #292 ) ;
#163 = EDGE_LOOP ( 'NONE', ( #197, #165, #228, #309 ) ) ;
#164 = EDGE_CURVE ( 'NONE', #238, #25, #70, .T. ) ;
#165 = ORIENTED_EDGE ( 'NONE', *, *, #222, .F. ) ;
#166 = DIRECTION ( 'NONE',  ( -1.074964198901197600E-016, 0.0000000000000000000, -1.000000000000000000 ) ) ;
#167 = CARTESIAN_POINT ( 'NONE',  ( -191.2499999999999700, -4.000000000000000000, 191.2500000000000300 ) ) ;
#168 = COLOUR_RGB ( '',1.000000000000000000, 1.000000000000000000, 1.000000000000000000 ) ;
#169 = ORIENTED_EDGE ( 'NONE', *, *, #324, .F. ) ;
#170 = VECTOR ( 'NONE', #82, 1000.000000000000000 ) ;
#171 = DIRECTION ( 'NONE',  ( 0.0000000000000000000, 1.000000000000000000, 0.0000000000000000000 ) ) ;
#172 = PLANE ( 'NONE',  #330 ) ;
#173 = VERTEX_POINT ( 'NONE', #227 ) ;
#174 =( LENGTH_UNIT ( ) NAMED_UNIT ( * ) SI_UNIT ( .MILLI., .METRE. ) );
#175 = CARTESIAN_POINT ( 'NONE',  ( 102.5000000000000300, 0.0000000000000000000, 129.0999999999999900 ) ) ;
#176 = EDGE_CURVE ( 'NONE', #6, #231, #266, .T. ) ;
#177 = VECTOR ( 'NONE', #332, 1000.000000000000000 ) ;
#178 = UNCERTAINTY_MEASURE_WITH_UNIT (LENGTH_MEASURE( 1.000000000000000100E-005 ), #185, 'distance_accuracy_value', 'NONE');
#179 = ORIENTED_EDGE ( 'NONE', *, *, #104, .F. ) ;
#180 = ORIENTED_EDGE ( 'NONE', *, *, #176, .F. ) ;
#181 = AXIS2_PLACEMENT_3D ( 'NONE', #277, #95, #117 ) ;
#182 = CARTESIAN_POINT ( 'NONE',  ( -102.5000000000000400, -4.000000000000003600, -129.0999999999999900 ) ) ;
#183 = VECTOR ( 'NONE', #234, 1000.000000000000000 ) ;
#184 = PRESENTATION_STYLE_ASSIGNMENT (( #189 ) ) ;
#185 =( LENGTH_UNIT ( ) NAMED_UNIT ( * ) SI_UNIT ( .MILLI., .METRE. ) );
#186 = EDGE_LOOP ( 'NONE', ( #329, #169, #304, #214 ) ) ;
#187 = EDGE_CURVE ( 'NONE', #248, #71, #317, .T. ) ;
#188 = ORIENTED_EDGE ( 'NONE', *, *, #142, .T. ) ;
#189 = SURFACE_STYLE_USAGE ( .BOTH. , #29 ) ;
#190 = ADVANCED_FACE ( 'NONE', ( #34 ), #275, .F. ) ;
#191 = ORIENTED_EDGE ( 'NONE', *, *, #239, .T. ) ;
#192 = LINE ( 'NONE', #280, #170 ) ;
#193 = ADVANCED_BREP_SHAPE_REPRESENTATION ( '7400509_KSTP1', ( #314, #269 ), #9 ) ;
#194 = EDGE_CURVE ( 'NONE', #236, #268, #54, .T. ) ;
#195 = PRODUCT_DEFINITION ( 'UNKNOWN', '', #138, #295 ) ;
#196 = LINE ( 'NONE', #89, #327 ) ;
#197 = ORIENTED_EDGE ( 'NONE', *, *, #161, .F. ) ;
#198 = CARTESIAN_POINT ( 'NONE',  ( 191.2499999999999700, -4.000000000000000000, -191.2499999999999700 ) ) ;
#199 = FACE_OUTER_BOUND ( 'NONE', #235, .T. ) ;
#200 = CARTESIAN_POINT ( 'NONE',  ( -191.2500000000000300, 0.0000000000000000000, -191.2499999999999700 ) ) ;
#201 = CARTESIAN_POINT ( 'NONE',  ( 191.2499999999999700, -4.000000000000000000, -191.2499999999999700 ) ) ;
#202 = EDGE_LOOP ( 'NONE', ( #240, #59, #65, #207 ) ) ;
#203 = DIRECTION ( 'NONE',  ( -1.000000000000000000, 0.0000000000000000000, 0.0000000000000000000 ) ) ;
#204 = CARTESIAN_POINT ( 'NONE',  ( -102.5000000000000400, 0.0000000000000000000, -129.1000000000000500 ) ) ;
#205 = PLANE ( 'NONE',  #181 ) ;
#206 = CARTESIAN_POINT ( 'NONE',  ( 102.5000000000000300, -4.000000000000003600, 129.0999999999999900 ) ) ;
#207 = ORIENTED_EDGE ( 'NONE', *, *, #104, .T. ) ;
#208 = LINE ( 'NONE', #200, #58 ) ;
#209 = DIRECTION ( 'NONE',  ( -1.074964198901197600E-016, 0.0000000000000000000, -1.000000000000000000 ) ) ;
#210 = ORIENTED_EDGE ( 'NONE', *, *, #222, .T. ) ;
#211 = DIRECTION ( 'NONE',  ( 0.0000000000000000000, 0.0000000000000000000, -1.000000000000000000 ) ) ;
#212 = DIRECTION ( 'NONE',  ( 1.000000000000000000, 0.0000000000000000000, -0.0000000000000000000 ) ) ;
#213 = EDGE_CURVE ( 'NONE', #248, #236, #116, .T. ) ;
#214 = ORIENTED_EDGE ( 'NONE', *, *, #305, .F. ) ;
#215 = ADVANCED_FACE ( 'NONE', ( #111 ), #310, .T. ) ;
#216 = FILL_AREA_STYLE ('',( #7 ) ) ;
#217 = LINE ( 'NONE', #39, #36 ) ;
#218 = ORIENTED_EDGE ( 'NONE', *, *, #283, .T. ) ;
#219 =( GEOMETRIC_REPRESENTATION_CONTEXT ( 3 ) GLOBAL_UNCERTAINTY_ASSIGNED_CONTEXT ( ( #178 ) ) GLOBAL_UNIT_ASSIGNED_CONTEXT ( ( #185, #51, #27 ) ) REPRESENTATION_CONTEXT ( 'NONE', 'WORKASPACE' ) );
#220 = AXIS2_PLACEMENT_3D ( 'NONE', #91, #66, #203 ) ;
#221 = AXIS2_PLACEMENT_3D ( 'NONE', #294, #211, #325 ) ;
#222 = EDGE_CURVE ( 'NONE', #25, #28, #1, .T. ) ;
#223 = LINE ( 'NONE', #38, #287 ) ;
#224 = LINE ( 'NONE', #146, #114 ) ;
#225 = VECTOR ( 'NONE', #94, 1000.000000000000000 ) ;
#226 = DIRECTION ( 'NONE',  ( 1.074964198901197400E-016, 0.0000000000000000000, 1.000000000000000000 ) ) ;
#227 = CARTESIAN_POINT ( 'NONE',  ( 191.2500000000000300, 0.0000000000000000000, 191.2500000000000300 ) ) ;
#228 = ORIENTED_EDGE ( 'NONE', *, *, #256, .T. ) ;
#229 = CARTESIAN_POINT ( 'NONE',  ( -191.2499999999999700, 0.0000000000000000000, 191.2500000000000300 ) ) ;
#230 = CARTESIAN_POINT ( 'NONE',  ( 102.5000000000000000, 0.0000000000000000000, -129.0999999999999900 ) ) ;
#231 = VERTEX_POINT ( 'NONE', #15 ) ;
#232 = CARTESIAN_POINT ( 'NONE',  ( -191.2499999999999700, 0.0000000000000000000, 191.2500000000000300 ) ) ;
#233 = CARTESIAN_POINT ( 'NONE',  ( -191.2499999999999700, -4.000000000000000000, 191.2500000000000300 ) ) ;
#234 = DIRECTION ( 'NONE',  ( -1.451271927614584000E-016, -0.0000000000000000000, -1.000000000000000000 ) ) ;
#235 = EDGE_LOOP ( 'NONE', ( #282, #326, #191, #93 ) ) ;
#236 = VERTEX_POINT ( 'NONE', #276 ) ;
#237 = CARTESIAN_POINT ( 'NONE',  ( 102.5000000000000000, -333.6850618393257300, -129.0999999999999900 ) ) ;
#238 = VERTEX_POINT ( 'NONE', #87 ) ;
#239 = EDGE_CURVE ( 'NONE', #268, #71, #125, .T. ) ;
#240 = ORIENTED_EDGE ( 'NONE', *, *, #273, .F. ) ;
#241 = APPLICATION_CONTEXT ( 'automotive_design' ) ;
#242 = ADVANCED_FACE ( 'NONE', ( #296 ), #328, .F. ) ;
#243 = ORIENTED_EDGE ( 'NONE', *, *, #49, .T. ) ;
#244 = FACE_OUTER_BOUND ( 'NONE', #254, .T. ) ;
#245 = ORIENTED_EDGE ( 'NONE', *, *, #52, .F. ) ;
#246 = VECTOR ( 'NONE', #209, 1000.000000000000000 ) ;
#247 = FACE_OUTER_BOUND ( 'NONE', #110, .T. ) ;
#248 = VERTEX_POINT ( 'NONE', #41 ) ;
#249 = LINE ( 'NONE', #118, #290 ) ;
#250 = CARTESIAN_POINT ( 'NONE',  ( -191.2500000000000300, -4.000000000000000000, -191.2499999999999700 ) ) ;
#251 = SURFACE_STYLE_FILL_AREA ( #216 ) ;
#252 = DIRECTION ( 'NONE',  ( 1.074964198901197600E-016, -0.0000000000000000000, 1.000000000000000000 ) ) ;
#253 = DIRECTION ( 'NONE',  ( 0.0000000000000000000, 1.000000000000000000, 0.0000000000000000000 ) ) ;
#254 = EDGE_LOOP ( 'NONE', ( #22, #293, #33, #278 ) ) ;
#255 = VECTOR ( 'NONE', #159, 1000.000000000000000 ) ;
#256 = EDGE_CURVE ( 'NONE', #25, #6, #140, .T. ) ;
#257 = CARTESIAN_POINT ( 'NONE',  ( -191.2500000000000300, -4.000000000000000000, -191.2499999999999700 ) ) ;
#258 = CARTESIAN_POINT ( 'NONE',  ( 102.5000000000000000, -4.000000000000003600, -129.0999999999999900 ) ) ;
#259 = CARTESIAN_POINT ( 'NONE',  ( 102.5000000000000300, -333.6850618393257300, 129.0999999999999900 ) ) ;
#260 = DIRECTION ( 'NONE',  ( -0.0000000000000000000, 1.000000000000000000, -0.0000000000000000000 ) ) ;
#261 = VECTOR ( 'NONE', #37, 1000.000000000000000 ) ;
#262 = LINE ( 'NONE', #233, #19 ) ;
#263 = LINE ( 'NONE', #232, #80 ) ;
#264 = PLANE ( 'NONE',  #270 ) ;
#265 = EDGE_LOOP ( 'NONE', ( #109, #333, #188, #320 ) ) ;
#266 = LINE ( 'NONE', #250, #177 ) ;
#267 = DIRECTION ( 'NONE',  ( 1.000000000000000000, 0.0000000000000000000, 0.0000000000000000000 ) ) ;
#268 = VERTEX_POINT ( 'NONE', #204 ) ;
#269 = AXIS2_PLACEMENT_3D ( 'NONE', #131, #105, #267 ) ;
#270 = AXIS2_PLACEMENT_3D ( 'NONE', #43, #148, #96 ) ;
#271 = PRODUCT ( '7400509_KSTP1', '7400509_KSTP1', '', ( #77 ) ) ;
#272 = ORIENTED_EDGE ( 'NONE', *, *, #239, .F. ) ;
#273 = EDGE_CURVE ( 'NONE', #85, #173, #263, .T. ) ;
#274 = EDGE_LOOP ( 'NONE', ( #137, #180, #83, #88 ) ) ;
#275 = PLANE ( 'NONE',  #141 ) ;
#276 = CARTESIAN_POINT ( 'NONE',  ( -102.5000000000000400, -4.000000000000003600, -129.0999999999999900 ) ) ;
#277 = CARTESIAN_POINT ( 'NONE',  ( -102.5000000000000400, -333.6850618393257300, -129.0999999999999900 ) ) ;
#278 = ORIENTED_EDGE ( 'NONE', *, *, #194, .F. ) ;
#279 = CARTESIAN_POINT ( 'NONE',  ( 102.5000000000000300, 0.0000000000000000000, 129.0999999999999900 ) ) ;
#280 = CARTESIAN_POINT ( 'NONE',  ( -191.2500000000000300, -4.000000000000000000, -191.2499999999999700 ) ) ;
#281 = DIRECTION ( 'NONE',  ( -1.451271927614584000E-016, 0.0000000000000000000, -1.000000000000000000 ) ) ;
#282 = ORIENTED_EDGE ( 'NONE', *, *, #213, .T. ) ;
#283 = EDGE_CURVE ( 'NONE', #71, #98, #12, .T. ) ;
#284 = VECTOR ( 'NONE', #260, 1000.000000000000000 ) ;
#285 = CARTESIAN_POINT ( 'NONE',  ( -191.2499999999999700, 0.0000000000000000000, 191.2500000000000300 ) ) ;
#286 = EDGE_CURVE ( 'NONE', #291, #152, #86, .T. ) ;
#287 = VECTOR ( 'NONE', #252, 1000.000000000000000 ) ;
#288 = ADVANCED_FACE ( 'NONE', ( #24 ), #16, .T. ) ;
#289 =( NAMED_UNIT ( * ) PLANE_ANGLE_UNIT ( ) SI_UNIT ( $, .RADIAN. ) );
#290 = VECTOR ( 'NONE', #253, 1000.000000000000000 ) ;
#291 = VERTEX_POINT ( 'NONE', #258 ) ;
#292 = VECTOR ( 'NONE', #126, 1000.000000000000000 ) ;
#293 = ORIENTED_EDGE ( 'NONE', *, *, #286, .T. ) ;
#294 = CARTESIAN_POINT ( 'NONE',  ( -191.2500000000000300, -4.000000000000000000, -191.2499999999999700 ) ) ;
#295 = PRODUCT_DEFINITION_CONTEXT ( 'detailed design', #241, 'design' ) ;
#296 = FACE_OUTER_BOUND ( 'NONE', #45, .T. ) ;
#297 = AXIS2_PLACEMENT_3D ( 'NONE', #337, #156, #212 ) ;
#298 = CARTESIAN_POINT ( 'NONE',  ( 191.2499999999999700, 0.0000000000000000000, -191.2499999999999700 ) ) ;
#299 = PRESENTATION_LAYER_ASSIGNMENT (  '', '', ( #44 ) ) ;
#300 = DIRECTION ( 'NONE',  ( 1.000000000000000000, 0.0000000000000000000, -1.074964198901197600E-016 ) ) ;
#301 = VECTOR ( 'NONE', #69, 1000.000000000000000 ) ;
#302 = ORIENTED_EDGE ( 'NONE', *, *, #68, .F. ) ;
#303 = DIRECTION ( 'NONE',  ( 0.0000000000000000000, -0.0000000000000000000, 1.000000000000000000 ) ) ;
#304 = ORIENTED_EDGE ( 'NONE', *, *, #213, .F. ) ;
#305 = EDGE_CURVE ( 'NONE', #76, #248, #162, .T. ) ;
#306 = DIRECTION ( 'NONE',  ( 1.000000000000000000, 0.0000000000000000000, -0.0000000000000000000 ) ) ;
#307 = VECTOR ( 'NONE', #10, 1000.000000000000000 ) ;
#308 = DIRECTION ( 'NONE',  ( -1.000000000000000000, 0.0000000000000000000, 1.451271927614584000E-016 ) ) ;
#309 = ORIENTED_EDGE ( 'NONE', *, *, #176, .T. ) ;
#310 = PLANE ( 'NONE',  #60 ) ;
#311 = VECTOR ( 'NONE', #72, 1000.000000000000000 ) ;
#312 = FILL_AREA_STYLE_COLOUR ( '', #168 ) ;
#313 = ORIENTED_EDGE ( 'NONE', *, *, #256, .F. ) ;
#314 = MANIFOLD_SOLID_BREP ( 'Schnitt-Linear austragen2', #323 ) ;
#315 =( NAMED_UNIT ( * ) PLANE_ANGLE_UNIT ( ) SI_UNIT ( $, .RADIAN. ) );
#316 = PRODUCT_DEFINITION_SHAPE ( 'NONE', 'NONE',  #195 ) ;
#317 = LINE ( 'NONE', #144, #307 ) ;
#318 = ADVANCED_FACE ( 'NONE', ( #119 ), #121, .T. ) ;
#319 = PRODUCT_RELATED_PRODUCT_CATEGORY ( 'part', '', ( #271 ) ) ;
#320 = ORIENTED_EDGE ( 'NONE', *, *, #286, .F. ) ;
#321 = COLOUR_RGB ( '',1.000000000000000000, 1.000000000000000000, 1.000000000000000000 ) ;
#322 = VECTOR ( 'NONE', #226, 1000.000000000000000 ) ;
#323 = CLOSED_SHELL ( 'NONE', ( #288, #3, #215, #318, #56, #158, #106, #190, #242, #78 ) ) ;
#324 = EDGE_CURVE ( 'NONE', #236, #291, #134, .T. ) ;
#325 = DIRECTION ( 'NONE',  ( -1.000000000000000000, 0.0000000000000000000, -0.0000000000000000000 ) ) ;
#326 = ORIENTED_EDGE ( 'NONE', *, *, #194, .T. ) ;
#327 = VECTOR ( 'NONE', #13, 1000.000000000000000 ) ;
#329 = ORIENTED_EDGE ( 'NONE', *, *, #147, .F. ) ;
#328 = PLANE ( 'NONE',  #73 ) ;
#330 = AXIS2_PLACEMENT_3D ( 'NONE', #229, #171, #303 ) ;
#331 = FACE_BOUND ( 'NONE', #50, .T. ) ;
#332 = DIRECTION ( 'NONE',  ( 0.0000000000000000000, 1.000000000000000000, 0.0000000000000000000 ) ) ;
#333 = ORIENTED_EDGE ( 'NONE', *, *, #90, .T. ) ;
#334 = DIRECTION ( 'NONE',  ( -1.074964198901197400E-016, -0.0000000000000000000, -1.000000000000000000 ) ) ;
#335 = ORIENTED_EDGE ( 'NONE', *, *, #283, .F. ) ;
#336 = PRESENTATION_LAYER_ASSIGNMENT (  '', '', ( #123 ) ) ;
#337 = CARTESIAN_POINT ( 'NONE',  ( -191.2499999999999700, -4.000000000000000000, 191.2500000000000300 ) ) ;
#338 =( GEOMETRIC_REPRESENTATION_CONTEXT ( 3 ) GLOBAL_UNCERTAINTY_ASSIGNED_CONTEXT ( ( #18 ) ) GLOBAL_UNIT_ASSIGNED_CONTEXT ( ( #4, #315, #129 ) ) REPRESENTATION_CONTEXT ( 'NONE', 'WORKASPACE' ) );
ENDSEC;
END-ISO-10303-21;
