ISO-10303-21;
HEADER;
FILE_DESCRIPTION (( 'STEP AP214' ),
    '1' );
FILE_NAME ('7400471_KSTP1.stp',
    '2016-10-12T07:27:29',
    ( '' ),
    ( '' ),
    'SwSTEP 2.0',
    'SolidWorks 2016',
    '' );
FILE_SCHEMA (( 'AUTOMOTIVE_DESIGN' ));
ENDSEC;

DATA;
#1 = DIRECTION ( 'NONE',  ( 0.0000000000000000000, 1.000000000000000000, 0.0000000000000000000 ) ) ;
#2 = DIRECTION ( 'NONE',  ( 1.000000000000000000, 0.0000000000000000000, 0.0000000000000000000 ) ) ;
#3 = CARTESIAN_POINT ( 'NONE',  ( -141.0000000000000000, 0.0000000000000000000, -141.0000000000000000 ) ) ;
#4 = ORIENTED_EDGE ( 'NONE', *, *, #94, .F. ) ;
#5 =( LENGTH_UNIT ( ) NAMED_UNIT ( * ) SI_UNIT ( .MILLI., .METRE. ) );
#6 = LINE ( 'NONE', #157, #190 ) ;
#7 = PRODUCT_DEFINITION_FORMATION_WITH_SPECIFIED_SOURCE ( 'ANY', '', #252, .NOT_KNOWN. ) ;
#8 =( NAMED_UNIT ( * ) PLANE_ANGLE_UNIT ( ) SI_UNIT ( $, .RADIAN. ) );
#9 = SURFACE_STYLE_USAGE ( .BOTH. , #27 ) ;
#10 = CARTESIAN_POINT ( 'NONE',  ( -141.0000000000000000, -4.000000000000000000, -141.0000000000000000 ) ) ;
#11 = FILL_AREA_STYLE ('',( #259 ) ) ;
#12 = CARTESIAN_POINT ( 'NONE',  ( -141.0000000000000000, -4.000000000000000000, -141.0000000000000000 ) ) ;
#13 =( NAMED_UNIT ( * ) PLANE_ANGLE_UNIT ( ) SI_UNIT ( $, .RADIAN. ) );
#14 = VECTOR ( 'NONE', #266, 1000.000000000000000 ) ;
#15 = ADVANCED_FACE ( 'NONE', ( #247 ), #82, .F. ) ;
#16 = ORIENTED_EDGE ( 'NONE', *, *, #161, .T. ) ;
#17 = ORIENTED_EDGE ( 'NONE', *, *, #144, .T. ) ;
#18 = SHAPE_DEFINITION_REPRESENTATION ( #60, #164 ) ;
#19 = ORIENTED_EDGE ( 'NONE', *, *, #119, .T. ) ;
#20 = FACE_OUTER_BOUND ( 'NONE', #58, .T. ) ;
#21 = PRODUCT_RELATED_PRODUCT_CATEGORY ( 'part', '', ( #252 ) ) ;
#22 = EDGE_LOOP ( 'NONE', ( #136, #165, #16, #113 ) ) ;
#23 = EDGE_LOOP ( 'NONE', ( #126, #163 ) ) ;
#24 = FACE_OUTER_BOUND ( 'NONE', #22, .T. ) ;
#25 = DIRECTION ( 'NONE',  ( 0.0000000000000000000, 0.0000000000000000000, 1.000000000000000000 ) ) ;
#26 = DIRECTION ( 'NONE',  ( 0.0000000000000000000, 0.0000000000000000000, 1.000000000000000000 ) ) ;
#27 = SURFACE_SIDE_STYLE ('',( #140 ) ) ;
#28 = ORIENTED_EDGE ( 'NONE', *, *, #161, .F. ) ;
#29 = FACE_OUTER_BOUND ( 'NONE', #260, .T. ) ;
#30 = AXIS2_PLACEMENT_3D ( 'NONE', #147, #123, #25 ) ;
#31 = CARTESIAN_POINT ( 'NONE',  ( 0.0000000000000000000, -4.000000000000000000, 109.5000000000000000 ) ) ;
#32 = DIRECTION ( 'NONE',  ( -0.0000000000000000000, 1.000000000000000000, -0.0000000000000000000 ) ) ;
#33 = EDGE_LOOP ( 'NONE', ( #109, #40 ) ) ;
#34 = DIRECTION ( 'NONE',  ( 0.0000000000000000000, 0.0000000000000000000, 1.000000000000000000 ) ) ;
#35 = ORIENTED_EDGE ( 'NONE', *, *, #94, .T. ) ;
#36 = VECTOR ( 'NONE', #221, 1000.000000000000000 ) ;
#37 = DIRECTION ( 'NONE',  ( 0.0000000000000000000, 1.000000000000000000, 0.0000000000000000000 ) ) ;
#38 = DIRECTION ( 'NONE',  ( -9.842402700577629600E-017, 0.0000000000000000000, -1.000000000000000000 ) ) ;
#39 = ORIENTED_EDGE ( 'NONE', *, *, #64, .F. ) ;
#40 = ORIENTED_EDGE ( 'NONE', *, *, #80, .F. ) ;
#41 = VERTEX_POINT ( 'NONE', #48 ) ;
#42 = VECTOR ( 'NONE', #201, 1000.000000000000000 ) ;
#43 = MANIFOLD_SOLID_BREP ( 'Schnitt-Linear austragen2', #111 ) ;
#44 = AXIS2_PLACEMENT_3D ( 'NONE', #177, #172, #207 ) ;
#45 = FACE_OUTER_BOUND ( 'NONE', #250, .T. ) ;
#46 = DIRECTION ( 'NONE',  ( -1.000000000000000000, 0.0000000000000000000, 9.842402700577629600E-017 ) ) ;
#47 = PLANE ( 'NONE',  #162 ) ;
#48 = CARTESIAN_POINT ( 'NONE',  ( 141.0000000000000000, -4.000000000000000000, 141.0000000000000000 ) ) ;
#49 = ADVANCED_FACE ( 'NONE', ( #90 ), #47, .T. ) ;
#50 =( NAMED_UNIT ( * ) SI_UNIT ( $, .STERADIAN. ) SOLID_ANGLE_UNIT ( ) );
#51 = DIRECTION ( 'NONE',  ( 0.0000000000000000000, 0.0000000000000000000, 1.000000000000000000 ) ) ;
#52 = DIRECTION ( 'NONE',  ( 1.000000000000000000, 0.0000000000000000000, -9.842402700577629600E-017 ) ) ;
#53 = DIRECTION ( 'NONE',  ( -0.0000000000000000000, 1.000000000000000000, -0.0000000000000000000 ) ) ;
#54 = AXIS2_PLACEMENT_3D ( 'NONE', #73, #225, #51 ) ;
#55 = ORIENTED_EDGE ( 'NONE', *, *, #268, .F. ) ;
#56 = VECTOR ( 'NONE', #203, 1000.000000000000000 ) ;
#57 = ORIENTED_EDGE ( 'NONE', *, *, #236, .F. ) ;
#58 = EDGE_LOOP ( 'NONE', ( #4, #187, #139, #180 ) ) ;
#59 = ORIENTED_EDGE ( 'NONE', *, *, #98, .F. ) ;
#60 = PRODUCT_DEFINITION_SHAPE ( 'NONE', 'NONE',  #272 ) ;
#61 = VERTEX_POINT ( 'NONE', #3 ) ;
#62 = LINE ( 'NONE', #158, #14 ) ;
#63 = PRESENTATION_STYLE_ASSIGNMENT (( #96 ) ) ;
#64 = EDGE_CURVE ( 'NONE', #214, #130, #262, .T. ) ;
#65 = DIRECTION ( 'NONE',  ( 0.0000000000000000000, 0.0000000000000000000, 1.000000000000000000 ) ) ;
#66 = PLANE ( 'NONE',  #275 ) ;
#67 = CARTESIAN_POINT ( 'NONE',  ( 140.9999999999999700, -4.000000000000000000, -141.0000000000000000 ) ) ;
#68 = DIRECTION ( 'NONE',  ( 0.0000000000000000000, 0.0000000000000000000, -1.000000000000000000 ) ) ;
#69 = FACE_OUTER_BOUND ( 'NONE', #168, .T. ) ;
#70 = AXIS2_PLACEMENT_3D ( 'NONE', #75, #52, #38 ) ;
#71 =( NAMED_UNIT ( * ) PLANE_ANGLE_UNIT ( ) SI_UNIT ( $, .RADIAN. ) );
#72 = CARTESIAN_POINT ( 'NONE',  ( 1.340988245066351800E-014, -4.000000000000000000, -109.5000000000000000 ) ) ;
#73 = CARTESIAN_POINT ( 'NONE',  ( 0.0000000000000000000, -4.000000000000000000, 0.0000000000000000000 ) ) ;
#74 = LINE ( 'NONE', #223, #118 ) ;
#75 = CARTESIAN_POINT ( 'NONE',  ( 140.9999999999999700, -4.000000000000000000, -141.0000000000000000 ) ) ;
#76 = FILL_AREA_STYLE ('',( #91 ) ) ;
#77 = PRESENTATION_STYLE_ASSIGNMENT (( #9 ) ) ;
#78 = ADVANCED_FACE ( 'NONE', ( #209, #45 ), #195, .F. ) ;
#79 = VECTOR ( 'NONE', #263, 1000.000000000000000 ) ;
#80 = EDGE_CURVE ( 'NONE', #273, #122, #142, .T. ) ;
#81 = LINE ( 'NONE', #10, #234 ) ;
#82 = CYLINDRICAL_SURFACE ( 'NONE', #117, 109.5000000000000000 ) ;
#83 = LINE ( 'NONE', #106, #79 ) ;
#84 = CARTESIAN_POINT ( 'NONE',  ( -141.0000000000000000, -4.000000000000000000, 141.0000000000000000 ) ) ;
#85 = CARTESIAN_POINT ( 'NONE',  ( 0.0000000000000000000, 0.0000000000000000000, 0.0000000000000000000 ) ) ;
#86 = DIRECTION ( 'NONE',  ( -0.0000000000000000000, 1.000000000000000000, -0.0000000000000000000 ) ) ;
#87 = EDGE_CURVE ( 'NONE', #41, #214, #202, .T. ) ;
#88 = DIRECTION ( 'NONE',  ( 0.0000000000000000000, 0.0000000000000000000, 1.000000000000000000 ) ) ;
#89 = DIRECTION ( 'NONE',  ( -1.000000000000000000, -0.0000000000000000000, -0.0000000000000000000 ) ) ;
#90 = FACE_OUTER_BOUND ( 'NONE', #188, .T. ) ;
#91 = FILL_AREA_STYLE_COLOUR ( '', #276 ) ;
#92 = CARTESIAN_POINT ( 'NONE',  ( 0.0000000000000000000, -4.000000000000000000, 0.0000000000000000000 ) ) ;
#93 = EDGE_CURVE ( 'NONE', #254, #122, #146, .T. ) ;
#94 = EDGE_CURVE ( 'NONE', #241, #130, #83, .T. ) ;
#95 = DIRECTION ( 'NONE',  ( 1.000000000000000000, 0.0000000000000000000, 0.0000000000000000000 ) ) ;
#96 = SURFACE_STYLE_USAGE ( .BOTH. , #229 ) ;
#97 =( GEOMETRIC_REPRESENTATION_CONTEXT ( 3 ) GLOBAL_UNCERTAINTY_ASSIGNED_CONTEXT ( ( #159 ) ) GLOBAL_UNIT_ASSIGNED_CONTEXT ( ( #160, #13, #50 ) ) REPRESENTATION_CONTEXT ( 'NONE', 'WORKASPACE' ) );
#98 = EDGE_CURVE ( 'NONE', #226, #241, #251, .T. ) ;
#99 = CARTESIAN_POINT ( 'NONE',  ( 141.0000000000000000, -4.000000000000000000, 141.0000000000000000 ) ) ;
#100 = ORIENTED_EDGE ( 'NONE', *, *, #265, .T. ) ;
#101 = DIRECTION ( 'NONE',  ( 1.000000000000000000, 0.0000000000000000000, 0.0000000000000000000 ) ) ;
#102 = EDGE_CURVE ( 'NONE', #178, #273, #248, .T. ) ;
#103 = AXIS2_PLACEMENT_3D ( 'NONE', #244, #37, #131 ) ;
#104 = LINE ( 'NONE', #245, #56 ) ;
#105 = APPLICATION_CONTEXT ( 'automotive_design' ) ;
#106 = CARTESIAN_POINT ( 'NONE',  ( 140.9999999999999700, 0.0000000000000000000, -141.0000000000000000 ) ) ;
#107 = CARTESIAN_POINT ( 'NONE',  ( -141.0000000000000000, -4.000000000000000000, 141.0000000000000000 ) ) ;
#108 = CARTESIAN_POINT ( 'NONE',  ( -141.0000000000000000, 0.0000000000000000000, 141.0000000000000000 ) ) ;
#109 = ORIENTED_EDGE ( 'NONE', *, *, #119, .F. ) ;
#110 = CARTESIAN_POINT ( 'NONE',  ( -141.0000000000000000, 0.0000000000000000000, 141.0000000000000000 ) ) ;
#111 = CLOSED_SHELL ( 'NONE', ( #138, #127, #49, #186, #153, #78, #239, #15 ) ) ;
#112 = EDGE_CURVE ( 'NONE', #254, #178, #255, .T. ) ;
#113 = ORIENTED_EDGE ( 'NONE', *, *, #150, .T. ) ;
#114 = LINE ( 'NONE', #12, #231 ) ;
#115 = SURFACE_STYLE_FILL_AREA ( #76 ) ;
#116 = ORIENTED_EDGE ( 'NONE', *, *, #265, .F. ) ;
#117 = AXIS2_PLACEMENT_3D ( 'NONE', #92, #32, #88 ) ;
#118 = VECTOR ( 'NONE', #89, 1000.000000000000000 ) ;
#119 = EDGE_CURVE ( 'NONE', #122, #273, #189, .T. ) ;
#120 = ORIENTED_EDGE ( 'NONE', *, *, #102, .F. ) ;
#121 = VECTOR ( 'NONE', #257, 1000.000000000000000 ) ;
#122 = VERTEX_POINT ( 'NONE', #171 ) ;
#123 = DIRECTION ( 'NONE',  ( -0.0000000000000000000, 1.000000000000000000, -0.0000000000000000000 ) ) ;
#124 = DIRECTION ( 'NONE',  ( 0.0000000000000000000, 0.0000000000000000000, 1.000000000000000000 ) ) ;
#125 = CARTESIAN_POINT ( 'NONE',  ( -141.0000000000000000, -4.000000000000000000, -141.0000000000000000 ) ) ;
#126 = ORIENTED_EDGE ( 'NONE', *, *, #112, .T. ) ;
#127 = ADVANCED_FACE ( 'NONE', ( #24 ), #66, .T. ) ;
#128 = CARTESIAN_POINT ( 'NONE',  ( 0.0000000000000000000, 0.0000000000000000000, 0.0000000000000000000 ) ) ;
#129 =( NAMED_UNIT ( * ) SI_UNIT ( $, .STERADIAN. ) SOLID_ANGLE_UNIT ( ) );
#130 = VERTEX_POINT ( 'NONE', #193 ) ;
#131 = DIRECTION ( 'NONE',  ( 0.0000000000000000000, -0.0000000000000000000, 1.000000000000000000 ) ) ;
#132 = DIRECTION ( 'NONE',  ( -1.000000000000000000, 0.0000000000000000000, -0.0000000000000000000 ) ) ;
#133 = FACE_BOUND ( 'NONE', #33, .T. ) ;
#134 = AXIS2_PLACEMENT_3D ( 'NONE', #128, #176, #34 ) ;
#135 = PLANE ( 'NONE',  #70 ) ;
#136 = ORIENTED_EDGE ( 'NONE', *, *, #182, .F. ) ;
#137 = VECTOR ( 'NONE', #86, 1000.000000000000000 ) ;
#138 = ADVANCED_FACE ( 'NONE', ( #29 ), #238, .F. ) ;
#139 = ORIENTED_EDGE ( 'NONE', *, *, #87, .T. ) ;
#140 = SURFACE_STYLE_FILL_AREA ( #11 ) ;
#141 = ORIENTED_EDGE ( 'NONE', *, *, #235, .F. ) ;
#142 = CIRCLE ( 'NONE', #134, 109.5000000000000000 ) ;
#143 = PRODUCT_DEFINITION_CONTEXT ( 'detailed design', #105, 'design' ) ;
#144 = EDGE_CURVE ( 'NONE', #41, #241, #184, .T. ) ;
#145 = ORIENTED_EDGE ( 'NONE', *, *, #268, .T. ) ;
#146 = LINE ( 'NONE', #31, #192 ) ;
#147 = CARTESIAN_POINT ( 'NONE',  ( 0.0000000000000000000, -4.000000000000000000, 0.0000000000000000000 ) ) ;
#148 = CARTESIAN_POINT ( 'NONE',  ( 0.0000000000000000000, -4.000000000000000000, 0.0000000000000000000 ) ) ;
#149 = VERTEX_POINT ( 'NONE', #191 ) ;
#150 = EDGE_CURVE ( 'NONE', #271, #226, #233, .T. ) ;
#151 = CARTESIAN_POINT ( 'NONE',  ( 0.0000000000000000000, 0.0000000000000000000, 0.0000000000000000000 ) ) ;
#152 = PRODUCT_CONTEXT ( 'NONE', #205, 'mechanical' ) ;
#153 = ADVANCED_FACE ( 'NONE', ( #69 ), #179, .T. ) ;
#154 = CARTESIAN_POINT ( 'NONE',  ( 140.9999999999999700, -4.000000000000000000, -141.0000000000000000 ) ) ;
#155 =( NAMED_UNIT ( * ) SI_UNIT ( $, .STERADIAN. ) SOLID_ANGLE_UNIT ( ) );
#156 = PLANE ( 'NONE',  #103 ) ;
#157 = CARTESIAN_POINT ( 'NONE',  ( -141.0000000000000000, -4.000000000000000000, 141.0000000000000000 ) ) ;
#158 = CARTESIAN_POINT ( 'NONE',  ( -141.0000000000000000, -4.000000000000000000, -141.0000000000000000 ) ) ;
#159 = UNCERTAINTY_MEASURE_WITH_UNIT (LENGTH_MEASURE( 1.000000000000000100E-005 ), #160, 'distance_accuracy_value', 'NONE');
#160 =( LENGTH_UNIT ( ) NAMED_UNIT ( * ) SI_UNIT ( .MILLI., .METRE. ) );
#161 = EDGE_CURVE ( 'NONE', #149, #271, #62, .T. ) ;
#162 = AXIS2_PLACEMENT_3D ( 'NONE', #125, #68, #132 ) ;
#163 = ORIENTED_EDGE ( 'NONE', *, *, #235, .T. ) ;
#164 = ADVANCED_BREP_SHAPE_REPRESENTATION ( '7400471_KSTP1', ( #43, #256 ), #97 ) ;
#165 = ORIENTED_EDGE ( 'NONE', *, *, #173, .F. ) ;
#166 = STYLED_ITEM ( 'NONE', ( #63 ), #164 ) ;
#167 = CIRCLE ( 'NONE', #54, 109.5000000000000000 ) ;
#168 = EDGE_LOOP ( 'NONE', ( #59, #219, #169, #17 ) ) ;
#169 = ORIENTED_EDGE ( 'NONE', *, *, #236, .T. ) ;
#170 = DIRECTION ( 'NONE',  ( 9.842402700577629600E-017, 0.0000000000000000000, 1.000000000000000000 ) ) ;
#171 = CARTESIAN_POINT ( 'NONE',  ( 0.0000000000000000000, 0.0000000000000000000, 109.5000000000000000 ) ) ;
#172 = DIRECTION ( 'NONE',  ( 0.0000000000000000000, 0.0000000000000000000, 1.000000000000000000 ) ) ;
#173 = EDGE_CURVE ( 'NONE', #149, #61, #114, .T. ) ;
#174 = ORIENTED_EDGE ( 'NONE', *, *, #80, .T. ) ;
#175 = VECTOR ( 'NONE', #196, 1000.000000000000000 ) ;
#176 = DIRECTION ( 'NONE',  ( 0.0000000000000000000, 1.000000000000000000, 0.0000000000000000000 ) ) ;
#177 = CARTESIAN_POINT ( 'NONE',  ( -141.0000000000000000, -4.000000000000000000, 141.0000000000000000 ) ) ;
#178 = VERTEX_POINT ( 'NONE', #228 ) ;
#179 = PLANE ( 'NONE',  #44 ) ;
#180 = ORIENTED_EDGE ( 'NONE', *, *, #64, .T. ) ;
#181 = CARTESIAN_POINT ( 'NONE',  ( 140.9999999999999700, -4.000000000000000000, -141.0000000000000000 ) ) ;
#182 = EDGE_CURVE ( 'NONE', #61, #226, #104, .T. ) ;
#183 = DIRECTION ( 'NONE',  ( 0.0000000000000000000, 1.000000000000000000, 0.0000000000000000000 ) ) ;
#184 = LINE ( 'NONE', #99, #121 ) ;
#185 = PRESENTATION_LAYER_ASSIGNMENT (  '', '', ( #166 ) ) ;
#186 = ADVANCED_FACE ( 'NONE', ( #20 ), #135, .T. ) ;
#187 = ORIENTED_EDGE ( 'NONE', *, *, #144, .F. ) ;
#188 = EDGE_LOOP ( 'NONE', ( #55, #39, #100, #217 ) ) ;
#189 = CIRCLE ( 'NONE', #232, 109.5000000000000000 ) ;
#190 = VECTOR ( 'NONE', #95, 1000.000000000000000 ) ;
#191 = CARTESIAN_POINT ( 'NONE',  ( -141.0000000000000000, -4.000000000000000000, -141.0000000000000000 ) ) ;
#192 = VECTOR ( 'NONE', #53, 1000.000000000000000 ) ;
#193 = CARTESIAN_POINT ( 'NONE',  ( 140.9999999999999700, 0.0000000000000000000, -141.0000000000000000 ) ) ;
#194 = PRESENTATION_LAYER_ASSIGNMENT (  '', '', ( #253 ) ) ;
#195 = PLANE ( 'NONE',  #208 ) ;
#196 = DIRECTION ( 'NONE',  ( 0.0000000000000000000, 1.000000000000000000, 0.0000000000000000000 ) ) ;
#197 = MECHANICAL_DESIGN_GEOMETRIC_PRESENTATION_REPRESENTATION (  '', ( #166 ), #213 ) ;
#198 = CARTESIAN_POINT ( 'NONE',  ( -141.0000000000000000, -4.000000000000000000, 141.0000000000000000 ) ) ;
#199 = ORIENTED_EDGE ( 'NONE', *, *, #182, .T. ) ;
#200 = CARTESIAN_POINT ( 'NONE',  ( 1.340988245066351800E-014, 0.0000000000000000000, -109.5000000000000000 ) ) ;
#201 = DIRECTION ( 'NONE',  ( 0.0000000000000000000, 1.000000000000000000, 0.0000000000000000000 ) ) ;
#202 = LINE ( 'NONE', #154, #36 ) ;
#203 = DIRECTION ( 'NONE',  ( 9.842402700577629600E-017, 0.0000000000000000000, 1.000000000000000000 ) ) ;
#204 = EDGE_LOOP ( 'NONE', ( #120, #216, #212, #19 ) ) ;
#205 = APPLICATION_CONTEXT ( 'automotive_design' ) ;
#206 = EDGE_LOOP ( 'NONE', ( #199, #242, #35, #145 ) ) ;
#207 = DIRECTION ( 'NONE',  ( 1.000000000000000000, 0.0000000000000000000, -0.0000000000000000000 ) ) ;
#208 = AXIS2_PLACEMENT_3D ( 'NONE', #198, #222, #224 ) ;
#209 = FACE_BOUND ( 'NONE', #23, .T. ) ;
#210 =( GEOMETRIC_REPRESENTATION_CONTEXT ( 3 ) GLOBAL_UNCERTAINTY_ASSIGNED_CONTEXT ( ( #237 ) ) GLOBAL_UNIT_ASSIGNED_CONTEXT ( ( #5, #71, #129 ) ) REPRESENTATION_CONTEXT ( 'NONE', 'WORKASPACE' ) );
#211 = ORIENTED_EDGE ( 'NONE', *, *, #102, .T. ) ;
#212 = ORIENTED_EDGE ( 'NONE', *, *, #93, .T. ) ;
#213 =( GEOMETRIC_REPRESENTATION_CONTEXT ( 3 ) GLOBAL_UNCERTAINTY_ASSIGNED_CONTEXT ( ( #270 ) ) GLOBAL_UNIT_ASSIGNED_CONTEXT ( ( #246, #8, #155 ) ) REPRESENTATION_CONTEXT ( 'NONE', 'WORKASPACE' ) );
#214 = VERTEX_POINT ( 'NONE', #181 ) ;
#215 = DIRECTION ( 'NONE',  ( 0.0000000000000000000, 1.000000000000000000, 0.0000000000000000000 ) ) ;
#216 = ORIENTED_EDGE ( 'NONE', *, *, #112, .F. ) ;
#217 = ORIENTED_EDGE ( 'NONE', *, *, #173, .T. ) ;
#218 = AXIS2_PLACEMENT_3D ( 'NONE', #148, #1, #124 ) ;
#219 = ORIENTED_EDGE ( 'NONE', *, *, #150, .F. ) ;
#220 = FACE_OUTER_BOUND ( 'NONE', #206, .T. ) ;
#221 = DIRECTION ( 'NONE',  ( -9.842402700577629600E-017, -0.0000000000000000000, -1.000000000000000000 ) ) ;
#222 = DIRECTION ( 'NONE',  ( 0.0000000000000000000, 1.000000000000000000, 0.0000000000000000000 ) ) ;
#223 = CARTESIAN_POINT ( 'NONE',  ( -141.0000000000000000, 0.0000000000000000000, -141.0000000000000000 ) ) ;
#224 = DIRECTION ( 'NONE',  ( 0.0000000000000000000, -0.0000000000000000000, 1.000000000000000000 ) ) ;
#225 = DIRECTION ( 'NONE',  ( 0.0000000000000000000, 1.000000000000000000, 0.0000000000000000000 ) ) ;
#226 = VERTEX_POINT ( 'NONE', #110 ) ;
#227 = MECHANICAL_DESIGN_GEOMETRIC_PRESENTATION_REPRESENTATION (  '', ( #253 ), #210 ) ;
#228 = CARTESIAN_POINT ( 'NONE',  ( 1.340988245066351800E-014, -4.000000000000000000, -109.5000000000000000 ) ) ;
#229 = SURFACE_SIDE_STYLE ('',( #115 ) ) ;
#230 = APPLICATION_PROTOCOL_DEFINITION ( 'draft international standard', 'automotive_design', 1998, #205 ) ;
#231 = VECTOR ( 'NONE', #183, 1000.000000000000000 ) ;
#232 = AXIS2_PLACEMENT_3D ( 'NONE', #85, #215, #65 ) ;
#233 = LINE ( 'NONE', #84, #175 ) ;
#234 = VECTOR ( 'NONE', #240, 1000.000000000000000 ) ;
#235 = EDGE_CURVE ( 'NONE', #178, #254, #167, .T. ) ;
#236 = EDGE_CURVE ( 'NONE', #271, #41, #6, .T. ) ;
#237 = UNCERTAINTY_MEASURE_WITH_UNIT (LENGTH_MEASURE( 1.000000000000000100E-005 ), #5, 'distance_accuracy_value', 'NONE');
#238 = CYLINDRICAL_SURFACE ( 'NONE', #30, 109.5000000000000000 ) ;
#239 = ADVANCED_FACE ( 'NONE', ( #133, #220 ), #156, .T. ) ;
#240 = DIRECTION ( 'NONE',  ( -1.000000000000000000, -0.0000000000000000000, -0.0000000000000000000 ) ) ;
#241 = VERTEX_POINT ( 'NONE', #264 ) ;
#242 = ORIENTED_EDGE ( 'NONE', *, *, #98, .T. ) ;
#243 = VECTOR ( 'NONE', #101, 1000.000000000000000 ) ;
#244 = CARTESIAN_POINT ( 'NONE',  ( -141.0000000000000000, 0.0000000000000000000, 141.0000000000000000 ) ) ;
#245 = CARTESIAN_POINT ( 'NONE',  ( -141.0000000000000000, 0.0000000000000000000, -141.0000000000000000 ) ) ;
#246 =( LENGTH_UNIT ( ) NAMED_UNIT ( * ) SI_UNIT ( .MILLI., .METRE. ) );
#247 = FACE_OUTER_BOUND ( 'NONE', #204, .T. ) ;
#248 = LINE ( 'NONE', #72, #137 ) ;
#249 = COLOUR_RGB ( '',0.4823529411764706000, 0.4901960784313725300, 0.4941176470588235500 ) ;
#250 = EDGE_LOOP ( 'NONE', ( #28, #116, #267, #57 ) ) ;
#251 = LINE ( 'NONE', #108, #243 ) ;
#252 = PRODUCT ( '7400471_KSTP1', '7400471_KSTP1', '', ( #152 ) ) ;
#253 = STYLED_ITEM ( 'NONE', ( #77 ), #43 ) ;
#254 = VERTEX_POINT ( 'NONE', #261 ) ;
#255 = CIRCLE ( 'NONE', #218, 109.5000000000000000 ) ;
#256 = AXIS2_PLACEMENT_3D ( 'NONE', #151, #26, #2 ) ;
#257 = DIRECTION ( 'NONE',  ( 0.0000000000000000000, 1.000000000000000000, 0.0000000000000000000 ) ) ;
#258 = CARTESIAN_POINT ( 'NONE',  ( -141.0000000000000000, -4.000000000000000000, -141.0000000000000000 ) ) ;
#259 = FILL_AREA_STYLE_COLOUR ( '', #249 ) ;
#260 = EDGE_LOOP ( 'NONE', ( #141, #211, #174, #274 ) ) ;
#261 = CARTESIAN_POINT ( 'NONE',  ( 0.0000000000000000000, -4.000000000000000000, 109.5000000000000000 ) ) ;
#262 = LINE ( 'NONE', #67, #42 ) ;
#263 = DIRECTION ( 'NONE',  ( -9.842402700577629600E-017, -0.0000000000000000000, -1.000000000000000000 ) ) ;
#264 = CARTESIAN_POINT ( 'NONE',  ( 141.0000000000000000, 0.0000000000000000000, 141.0000000000000000 ) ) ;
#265 = EDGE_CURVE ( 'NONE', #214, #149, #81, .T. ) ;
#266 = DIRECTION ( 'NONE',  ( 9.842402700577629600E-017, 0.0000000000000000000, 1.000000000000000000 ) ) ;
#267 = ORIENTED_EDGE ( 'NONE', *, *, #87, .F. ) ;
#268 = EDGE_CURVE ( 'NONE', #130, #61, #74, .T. ) ;
#269 = APPLICATION_PROTOCOL_DEFINITION ( 'draft international standard', 'automotive_design', 1998, #105 ) ;
#270 = UNCERTAINTY_MEASURE_WITH_UNIT (LENGTH_MEASURE( 1.000000000000000100E-005 ), #246, 'distance_accuracy_value', 'NONE');
#271 = VERTEX_POINT ( 'NONE', #107 ) ;
#272 = PRODUCT_DEFINITION ( 'UNKNOWN', '', #7, #143 ) ;
#273 = VERTEX_POINT ( 'NONE', #200 ) ;
#274 = ORIENTED_EDGE ( 'NONE', *, *, #93, .F. ) ;
#275 = AXIS2_PLACEMENT_3D ( 'NONE', #258, #46, #170 ) ;
#276 = COLOUR_RGB ( '',0.4823529411764706000, 0.4901960784313725300, 0.4941176470588235500 ) ;
ENDSEC;
END-ISO-10303-21;
