ISO-10303-21;
HEADER;
FILE_DESCRIPTION (( 'STEP AP214' ),
    '1' );
FILE_NAME ('7216390_KSTP1.stp',
    '2018-05-10T09:57:54',
    ( '' ),
    ( '' ),
    'SwSTEP 2.0',
    'SolidWorks 2016',
    '' );
FILE_SCHEMA (( 'AUTOMOTIVE_DESIGN' ));
ENDSEC;

DATA;
#1 = CLOSED_SHELL ( 'NONE', ( #2, #153, #173, #132, #202, #107 ) ) ;
#2 = ADVANCED_FACE ( 'NONE', ( #284 ), #270, .T. ) ;
#3 = SURFACE_SIDE_STYLE ('',( #7 ) ) ;
#4 = CARTESIAN_POINT ( 'NONE',  ( -110.0000000000000000, -35.00000000000000700, 20.00000000000000400 ) ) ;
#5 = EDGE_LOOP ( 'NONE', ( #21, #274, #200, #276 ) ) ;
#6 = EDGE_CURVE ( 'NONE', #205, #208, #25, .T. ) ;
#7 = SURFACE_STYLE_FILL_AREA ( #180 ) ;
#8 = AXIS2_PLACEMENT_3D ( 'NONE', #157, #147, #242 ) ;
#9 = DIRECTION ( 'NONE',  ( 0.0000000000000000000, -0.0000000000000000000, -1.000000000000000000 ) ) ;
#10 = VECTOR ( 'NONE', #37, 1000.000000000000000 ) ;
#11 = ADVANCED_BREP_SHAPE_REPRESENTATION ( '7216390_KSTP1', ( #194, #253 ), #275 ) ;
#12 = DIRECTION ( 'NONE',  ( -0.0000000000000000000, -0.0000000000000000000, 1.000000000000000000 ) ) ;
#13 =( NAMED_UNIT ( * ) SI_UNIT ( $, .STERADIAN. ) SOLID_ANGLE_UNIT ( ) );
#14 = PRODUCT_DEFINITION_SHAPE ( 'NONE', 'NONE',  #129 ) ;
#15 = CARTESIAN_POINT ( 'NONE',  ( 10.00000000000000000, 34.99999999999999300, 20.00000000000000400 ) ) ;
#16 =( LENGTH_UNIT ( ) NAMED_UNIT ( * ) SI_UNIT ( .MILLI., .METRE. ) );
#17 =( NAMED_UNIT ( * ) SI_UNIT ( $, .STERADIAN. ) SOLID_ANGLE_UNIT ( ) );
#18 = PRESENTATION_STYLE_ASSIGNMENT (( #130 ) ) ;
#19 = COLOUR_RGB ( '',0.7529411764705882200, 0.7529411764705882200, 0.7529411764705882200 ) ;
#20 = PRESENTATION_LAYER_ASSIGNMENT (  '', '', ( #206 ) ) ;
#21 = ORIENTED_EDGE ( 'NONE', *, *, #85, .T. ) ;
#22 = EDGE_LOOP ( 'NONE', ( #141, #39, #249, #269 ) ) ;
#23 = VERTEX_POINT ( 'NONE', #280 ) ;
#24 = FACE_OUTER_BOUND ( 'NONE', #167, .T. ) ;
#25 = LINE ( 'NONE', #36, #90 ) ;
#26 = VECTOR ( 'NONE', #110, 1000.000000000000000 ) ;
#27 = LINE ( 'NONE', #53, #10 ) ;
#28 = VECTOR ( 'NONE', #226, 1000.000000000000000 ) ;
#29 = LINE ( 'NONE', #203, #41 ) ;
#30 = LINE ( 'NONE', #103, #26 ) ;
#31 = LINE ( 'NONE', #84, #32 ) ;
#32 = VECTOR ( 'NONE', #229, 1000.000000000000000 ) ;
#33 = VECTOR ( 'NONE', #95, 1000.000000000000000 ) ;
#34 = DIRECTION ( 'NONE',  ( -1.000000000000000000, 0.0000000000000000000, 0.0000000000000000000 ) ) ;
#35 = LINE ( 'NONE', #195, #45 ) ;
#36 = CARTESIAN_POINT ( 'NONE',  ( 10.00000000000000000, -35.00000000000000700, -19.99999999999999600 ) ) ;
#37 = DIRECTION ( 'NONE',  ( 1.000000000000000000, 0.0000000000000000000, 0.0000000000000000000 ) ) ;
#38 =( LENGTH_UNIT ( ) NAMED_UNIT ( * ) SI_UNIT ( .MILLI., .METRE. ) );
#39 = ORIENTED_EDGE ( 'NONE', *, *, #263, .F. ) ;
#40 = COLOUR_RGB ( '',0.7529411764705882200, 0.7529411764705882200, 0.7529411764705882200 ) ;
#41 = VECTOR ( 'NONE', #111, 1000.000000000000000 ) ;
#42 = UNCERTAINTY_MEASURE_WITH_UNIT (LENGTH_MEASURE( 1.000000000000000100E-005 ), #271, 'distance_accuracy_value', 'NONE');
#43 =( GEOMETRIC_REPRESENTATION_CONTEXT ( 3 ) GLOBAL_UNCERTAINTY_ASSIGNED_CONTEXT ( ( #56 ) ) GLOBAL_UNIT_ASSIGNED_CONTEXT ( ( #209, #213, #13 ) ) REPRESENTATION_CONTEXT ( 'NONE', 'WORKASPACE' ) );
#44 = LINE ( 'NONE', #230, #46 ) ;
#45 = VECTOR ( 'NONE', #131, 1000.000000000000000 ) ;
#46 = VECTOR ( 'NONE', #162, 1000.000000000000000 ) ;
#47 = LINE ( 'NONE', #83, #52 ) ;
#48 = VECTOR ( 'NONE', #12, 1000.000000000000000 ) ;
#49 =( GEOMETRIC_REPRESENTATION_CONTEXT ( 3 ) GLOBAL_UNCERTAINTY_ASSIGNED_CONTEXT ( ( #94 ) ) GLOBAL_UNIT_ASSIGNED_CONTEXT ( ( #16, #101, #251 ) ) REPRESENTATION_CONTEXT ( 'NONE', 'WORKASPACE' ) );
#50 = SURFACE_SIDE_STYLE ('',( #184 ) ) ;
#51 = STYLED_ITEM ( 'NONE', ( #74 ), #202 ) ;
#52 = VECTOR ( 'NONE', #67, 1000.000000000000000 ) ;
#53 = CARTESIAN_POINT ( 'NONE',  ( -110.0000000000000000, 34.99999999999999300, -19.99999999999999600 ) ) ;
#54 = PRESENTATION_STYLE_ASSIGNMENT (( #241 ) ) ;
#55 = VERTEX_POINT ( 'NONE', #69 ) ;
#56 = UNCERTAINTY_MEASURE_WITH_UNIT (LENGTH_MEASURE( 1.000000000000000100E-005 ), #209, 'distance_accuracy_value', 'NONE');
#57 = UNCERTAINTY_MEASURE_WITH_UNIT (LENGTH_MEASURE( 1.000000000000000100E-005 ), #96, 'distance_accuracy_value', 'NONE');
#58 = COLOUR_RGB ( '',0.7529411764705882200, 0.7529411764705882200, 0.7529411764705882200 ) ;
#59 = SURFACE_STYLE_FILL_AREA ( #76 ) ;
#60 = PRESENTATION_STYLE_ASSIGNMENT (( #218 ) ) ;
#61 = ORIENTED_EDGE ( 'NONE', *, *, #178, .T. ) ;
#62 = CARTESIAN_POINT ( 'NONE',  ( -110.0000000000000000, -35.00000000000000700, 20.00000000000000400 ) ) ;
#63 = FILL_AREA_STYLE_COLOUR ( '', #19 ) ;
#64 = AXIS2_PLACEMENT_3D ( 'NONE', #177, #34, #188 ) ;
#65 = CARTESIAN_POINT ( 'NONE',  ( -110.0000000000000000, -35.00000000000000700, 20.00000000000000400 ) ) ;
#66 = DIRECTION ( 'NONE',  ( 0.0000000000000000000, 0.0000000000000000000, 1.000000000000000000 ) ) ;
#67 = DIRECTION ( 'NONE',  ( 0.0000000000000000000, 0.0000000000000000000, -1.000000000000000000 ) ) ;
#68 = SHAPE_DEFINITION_REPRESENTATION ( #14, #11 ) ;
#69 = CARTESIAN_POINT ( 'NONE',  ( 10.00000000000000000, -35.00000000000000700, 20.00000000000000400 ) ) ;
#70 = SURFACE_STYLE_FILL_AREA ( #228 ) ;
#71 = PLANE ( 'NONE',  #75 ) ;
#72 = FILL_AREA_STYLE_COLOUR ( '', #80 ) ;
#73 = FILL_AREA_STYLE ('',( #72 ) ) ;
#74 = PRESENTATION_STYLE_ASSIGNMENT (( #189 ) ) ;
#75 = AXIS2_PLACEMENT_3D ( 'NONE', #62, #222, #9 ) ;
#76 = FILL_AREA_STYLE ('',( #227 ) ) ;
#77 = FILL_AREA_STYLE_COLOUR ( '', #40 ) ;
#78 = EDGE_CURVE ( 'NONE', #182, #170, #30, .T. ) ;
#79 =( NAMED_UNIT ( * ) PLANE_ANGLE_UNIT ( ) SI_UNIT ( $, .RADIAN. ) );
#80 = COLOUR_RGB ( '',0.7529411764705882200, 0.7529411764705882200, 0.7529411764705882200 ) ;
#81 = SURFACE_SIDE_STYLE ('',( #220 ) ) ;
#82 = CARTESIAN_POINT ( 'NONE',  ( -110.0000000000000000, -35.00000000000000700, 20.00000000000000400 ) ) ;
#83 = CARTESIAN_POINT ( 'NONE',  ( 10.00000000000000000, -35.00000000000000700, 20.00000000000000400 ) ) ;
#84 = CARTESIAN_POINT ( 'NONE',  ( -110.0000000000000000, -35.00000000000000700, 20.00000000000000400 ) ) ;
#85 = EDGE_CURVE ( 'NONE', #170, #139, #277, .T. ) ;
#86 = CARTESIAN_POINT ( 'NONE',  ( 10.00000000000000000, 0.0000000000000000000, 0.0000000000000000000 ) ) ;
#87 = EDGE_CURVE ( 'NONE', #182, #208, #27, .T. ) ;
#88 = FILL_AREA_STYLE ('',( #77 ) ) ;
#89 = MECHANICAL_DESIGN_GEOMETRIC_PRESENTATION_REPRESENTATION (  '', ( #266 ), #176 ) ;
#90 = VECTOR ( 'NONE', #168, 1000.000000000000000 ) ;
#91 = PRODUCT_DEFINITION_CONTEXT ( 'detailed design', #142, 'design' ) ;
#92 = EDGE_LOOP ( 'NONE', ( #291, #268, #283, #61 ) ) ;
#93 = MECHANICAL_DESIGN_GEOMETRIC_PRESENTATION_REPRESENTATION (  '', ( #217 ), #285 ) ;
#94 = UNCERTAINTY_MEASURE_WITH_UNIT (LENGTH_MEASURE( 1.000000000000000100E-005 ), #16, 'distance_accuracy_value', 'NONE');
#95 = DIRECTION ( 'NONE',  ( -0.0000000000000000000, -1.000000000000000000, -0.0000000000000000000 ) ) ;
#96 =( LENGTH_UNIT ( ) NAMED_UNIT ( * ) SI_UNIT ( .MILLI., .METRE. ) );
#97 = ORIENTED_EDGE ( 'NONE', *, *, #255, .F. ) ;
#98 = APPLICATION_PROTOCOL_DEFINITION ( 'draft international standard', 'automotive_design', 1998, #140 ) ;
#99 = CARTESIAN_POINT ( 'NONE',  ( -110.0000000000000000, -35.00000000000000700, -19.99999999999999600 ) ) ;
#100 = SURFACE_STYLE_USAGE ( .BOTH. , #112 ) ;
#101 =( NAMED_UNIT ( * ) PLANE_ANGLE_UNIT ( ) SI_UNIT ( $, .RADIAN. ) );
#102 = PRESENTATION_STYLE_ASSIGNMENT (( #125 ) ) ;
#103 = CARTESIAN_POINT ( 'NONE',  ( -110.0000000000000000, 34.99999999999999300, 20.00000000000000400 ) ) ;
#104 = LINE ( 'NONE', #243, #48 ) ;
#105 = PRESENTATION_STYLE_ASSIGNMENT (( #246 ) ) ;
#106 = FILL_AREA_STYLE_COLOUR ( '', #128 ) ;
#107 = ADVANCED_FACE ( 'NONE', ( #24 ), #160, .F. ) ;
#108 =( NAMED_UNIT ( * ) SI_UNIT ( $, .STERADIAN. ) SOLID_ANGLE_UNIT ( ) );
#109 =( LENGTH_UNIT ( ) NAMED_UNIT ( * ) SI_UNIT ( .MILLI., .METRE. ) );
#110 = DIRECTION ( 'NONE',  ( -0.0000000000000000000, -0.0000000000000000000, 1.000000000000000000 ) ) ;
#111 = DIRECTION ( 'NONE',  ( 1.000000000000000000, 0.0000000000000000000, 0.0000000000000000000 ) ) ;
#112 = SURFACE_SIDE_STYLE ('',( #70 ) ) ;
#113 = VERTEX_POINT ( 'NONE', #82 ) ;
#114 =( LENGTH_UNIT ( ) NAMED_UNIT ( * ) SI_UNIT ( .MILLI., .METRE. ) );
#115 = ORIENTED_EDGE ( 'NONE', *, *, #178, .F. ) ;
#116 =( NAMED_UNIT ( * ) SI_UNIT ( $, .STERADIAN. ) SOLID_ANGLE_UNIT ( ) );
#117 = PRODUCT ( '7216390_KSTP1', '7216390_KSTP1', '', ( #192 ) ) ;
#118 = ORIENTED_EDGE ( 'NONE', *, *, #256, .T. ) ;
#119 = FACE_OUTER_BOUND ( 'NONE', #22, .T. ) ;
#120 = PRESENTATION_LAYER_ASSIGNMENT (  '', '', ( #286 ) ) ;
#121 = SURFACE_STYLE_FILL_AREA ( #149 ) ;
#122 =( GEOMETRIC_REPRESENTATION_CONTEXT ( 3 ) GLOBAL_UNCERTAINTY_ASSIGNED_CONTEXT ( ( #57 ) ) GLOBAL_UNIT_ASSIGNED_CONTEXT ( ( #96, #79, #108 ) ) REPRESENTATION_CONTEXT ( 'NONE', 'WORKASPACE' ) );
#123 = FACE_OUTER_BOUND ( 'NONE', #236, .T. ) ;
#124 = UNCERTAINTY_MEASURE_WITH_UNIT (LENGTH_MEASURE( 1.000000000000000100E-005 ), #288, 'distance_accuracy_value', 'NONE');
#125 = SURFACE_STYLE_USAGE ( .BOTH. , #257 ) ;
#126 = ORIENTED_EDGE ( 'NONE', *, *, #262, .T. ) ;
#127 = ORIENTED_EDGE ( 'NONE', *, *, #256, .F. ) ;
#128 = COLOUR_RGB ( '',0.7529411764705882200, 0.7529411764705882200, 0.7529411764705882200 ) ;
#129 = PRODUCT_DEFINITION ( 'UNKNOWN', '', #215, #91 ) ;
#130 = SURFACE_STYLE_USAGE ( .BOTH. , #179 ) ;
#131 = DIRECTION ( 'NONE',  ( 0.0000000000000000000, 1.000000000000000000, 0.0000000000000000000 ) ) ;
#132 = ADVANCED_FACE ( 'NONE', ( #186 ), #185, .T. ) ;
#133 = COLOUR_RGB ( '',0.7529411764705882200, 0.7529411764705882200, 0.7529411764705882200 ) ;
#134 = COLOUR_RGB ( '',0.7529411764705882200, 0.7529411764705882200, 0.7529411764705882200 ) ;
#135 = UNCERTAINTY_MEASURE_WITH_UNIT (LENGTH_MEASURE( 1.000000000000000100E-005 ), #38, 'distance_accuracy_value', 'NONE');
#136 = APPLICATION_PROTOCOL_DEFINITION ( 'draft international standard', 'automotive_design', 1998, #142 ) ;
#137 = DIRECTION ( 'NONE',  ( -1.000000000000000000, 0.0000000000000000000, 0.0000000000000000000 ) ) ;
#138 = SURFACE_STYLE_USAGE ( .BOTH. , #163 ) ;
#139 = VERTEX_POINT ( 'NONE', #15 ) ;
#140 = APPLICATION_CONTEXT ( 'automotive_design' ) ;
#141 = ORIENTED_EDGE ( 'NONE', *, *, #255, .T. ) ;
#142 = APPLICATION_CONTEXT ( 'automotive_design' ) ;
#143 = UNCERTAINTY_MEASURE_WITH_UNIT (LENGTH_MEASURE( 1.000000000000000100E-005 ), #109, 'distance_accuracy_value', 'NONE');
#144 =( GEOMETRIC_REPRESENTATION_CONTEXT ( 3 ) GLOBAL_UNCERTAINTY_ASSIGNED_CONTEXT ( ( #158 ) ) GLOBAL_UNIT_ASSIGNED_CONTEXT ( ( #279, #272, #234 ) ) REPRESENTATION_CONTEXT ( 'NONE', 'WORKASPACE' ) );
#145 = VECTOR ( 'NONE', #171, 1000.000000000000000 ) ;
#146 = PRESENTATION_LAYER_ASSIGNMENT (  '', '', ( #261 ) ) ;
#147 = DIRECTION ( 'NONE',  ( -0.0000000000000000000, 1.000000000000000000, 0.0000000000000000000 ) ) ;
#148 = CARTESIAN_POINT ( 'NONE',  ( 0.0000000000000000000, 0.0000000000000000000, 0.0000000000000000000 ) ) ;
#149 = FILL_AREA_STYLE ('',( #172 ) ) ;
#150 = FACE_OUTER_BOUND ( 'NONE', #92, .T. ) ;
#151 = PRESENTATION_LAYER_ASSIGNMENT (  '', '', ( #266 ) ) ;
#152 = ORIENTED_EDGE ( 'NONE', *, *, #6, .T. ) ;
#153 = ADVANCED_FACE ( 'NONE', ( #119 ), #71, .T. ) ;
#154 = MECHANICAL_DESIGN_GEOMETRIC_PRESENTATION_REPRESENTATION (  '', ( #51 ), #43 ) ;
#155 =( NAMED_UNIT ( * ) PLANE_ANGLE_UNIT ( ) SI_UNIT ( $, .RADIAN. ) );
#156 = EDGE_LOOP ( 'NONE', ( #287, #260, #97, #118 ) ) ;
#157 = CARTESIAN_POINT ( 'NONE',  ( -110.0000000000000000, 34.99999999999999300, 20.00000000000000400 ) ) ;
#158 = UNCERTAINTY_MEASURE_WITH_UNIT (LENGTH_MEASURE( 1.000000000000000100E-005 ), #279, 'distance_accuracy_value', 'NONE');
#159 =( NAMED_UNIT ( * ) PLANE_ANGLE_UNIT ( ) SI_UNIT ( $, .RADIAN. ) );
#160 = PLANE ( 'NONE',  #292 ) ;
#161 = FILL_AREA_STYLE_COLOUR ( '', #133 ) ;
#162 = DIRECTION ( 'NONE',  ( 1.000000000000000000, 0.0000000000000000000, 0.0000000000000000000 ) ) ;
#163 = SURFACE_SIDE_STYLE ('',( #121 ) ) ;
#164 = FILL_AREA_STYLE ('',( #281 ) ) ;
#165 = AXIS2_PLACEMENT_3D ( 'NONE', #99, #166, #183 ) ;
#166 = DIRECTION ( 'NONE',  ( 0.0000000000000000000, 0.0000000000000000000, -1.000000000000000000 ) ) ;
#167 = EDGE_LOOP ( 'NONE', ( #152, #126, #175, #290 ) ) ;
#168 = DIRECTION ( 'NONE',  ( 0.0000000000000000000, 1.000000000000000000, 0.0000000000000000000 ) ) ;
#169 = LINE ( 'NONE', #199, #33 ) ;
#170 = VERTEX_POINT ( 'NONE', #223 ) ;
#171 = DIRECTION ( 'NONE',  ( -0.0000000000000000000, -1.000000000000000000, -0.0000000000000000000 ) ) ;
#172 = FILL_AREA_STYLE_COLOUR ( '', #134 ) ;
#173 = ADVANCED_FACE ( 'NONE', ( #150 ), #238, .T. ) ;
#174 = COLOUR_RGB ( '',0.7529411764705882200, 0.7529411764705882200, 0.7529411764705882200 ) ;
#175 = ORIENTED_EDGE ( 'NONE', *, *, #210, .T. ) ;
#176 =( GEOMETRIC_REPRESENTATION_CONTEXT ( 3 ) GLOBAL_UNCERTAINTY_ASSIGNED_CONTEXT ( ( #231 ) ) GLOBAL_UNIT_ASSIGNED_CONTEXT ( ( #114, #247, #17 ) ) REPRESENTATION_CONTEXT ( 'NONE', 'WORKASPACE' ) );
#177 = CARTESIAN_POINT ( 'NONE',  ( -110.0000000000000000, 0.0000000000000000000, 0.0000000000000000000 ) ) ;
#178 = EDGE_CURVE ( 'NONE', #170, #113, #190, .T. ) ;
#179 = SURFACE_SIDE_STYLE ('',( #216 ) ) ;
#180 = FILL_AREA_STYLE ('',( #63 ) ) ;
#181 = DIRECTION ( 'NONE',  ( 0.0000000000000000000, 0.0000000000000000000, 1.000000000000000000 ) ) ;
#182 = VERTEX_POINT ( 'NONE', #264 ) ;
#183 = DIRECTION ( 'NONE',  ( -1.000000000000000000, 0.0000000000000000000, -0.0000000000000000000 ) ) ;
#184 = SURFACE_STYLE_FILL_AREA ( #164 ) ;
#185 = PLANE ( 'NONE',  #8 ) ;
#186 = FACE_OUTER_BOUND ( 'NONE', #5, .T. ) ;
#187 = ORIENTED_EDGE ( 'NONE', *, *, #78, .F. ) ;
#188 = DIRECTION ( 'NONE',  ( 0.0000000000000000000, 0.0000000000000000000, 1.000000000000000000 ) ) ;
#189 = SURFACE_STYLE_USAGE ( .BOTH. , #81 ) ;
#190 = LINE ( 'NONE', #4, #145 ) ;
#191 =( NAMED_UNIT ( * ) SI_UNIT ( $, .STERADIAN. ) SOLID_ANGLE_UNIT ( ) );
#192 = PRODUCT_CONTEXT ( 'NONE', #140, 'mechanical' ) ;
#193 = AXIS2_PLACEMENT_3D ( 'NONE', #65, #181, #197 ) ;
#194 = MANIFOLD_SOLID_BREP ( 'Boss-Extrude1', #1 ) ;
#195 = CARTESIAN_POINT ( 'NONE',  ( -110.0000000000000000, -35.00000000000000700, -19.99999999999999600 ) ) ;
#196 = CARTESIAN_POINT ( 'NONE',  ( 10.00000000000000000, -35.00000000000000700, -19.99999999999999600 ) ) ;
#197 = DIRECTION ( 'NONE',  ( 1.000000000000000000, 0.0000000000000000000, -0.0000000000000000000 ) ) ;
#198 =( NAMED_UNIT ( * ) SI_UNIT ( $, .STERADIAN. ) SOLID_ANGLE_UNIT ( ) );
#199 = CARTESIAN_POINT ( 'NONE',  ( 10.00000000000000000, -35.00000000000000700, 20.00000000000000400 ) ) ;
#200 = ORIENTED_EDGE ( 'NONE', *, *, #87, .F. ) ;
#201 = PLANE ( 'NONE',  #64 ) ;
#202 = ADVANCED_FACE ( 'NONE', ( #123 ), #201, .T. ) ;
#203 = CARTESIAN_POINT ( 'NONE',  ( -110.0000000000000000, -35.00000000000000700, -19.99999999999999600 ) ) ;
#204 = CARTESIAN_POINT ( 'NONE',  ( -110.0000000000000000, 34.99999999999999300, 20.00000000000000400 ) ) ;
#205 = VERTEX_POINT ( 'NONE', #196 ) ;
#206 = STYLED_ITEM ( 'NONE', ( #60 ), #11 ) ;
#207 = PRESENTATION_STYLE_ASSIGNMENT (( #100 ) ) ;
#208 = VERTEX_POINT ( 'NONE', #289 ) ;
#209 =( LENGTH_UNIT ( ) NAMED_UNIT ( * ) SI_UNIT ( .MILLI., .METRE. ) );
#210 = EDGE_CURVE ( 'NONE', #139, #55, #169, .T. ) ;
#211 = EDGE_CURVE ( 'NONE', #113, #23, #31, .T. ) ;
#212 = STYLED_ITEM ( 'NONE', ( #207 ), #153 ) ;
#213 =( NAMED_UNIT ( * ) PLANE_ANGLE_UNIT ( ) SI_UNIT ( $, .RADIAN. ) );
#214 = SURFACE_STYLE_FILL_AREA ( #88 ) ;
#215 = PRODUCT_DEFINITION_FORMATION_WITH_SPECIFIED_SOURCE ( 'ANY', '', #117, .NOT_KNOWN. ) ;
#216 = SURFACE_STYLE_FILL_AREA ( #221 ) ;
#217 = STYLED_ITEM ( 'NONE', ( #18 ), #194 ) ;
#218 = SURFACE_STYLE_USAGE ( .BOTH. , #237 ) ;
#219 = MECHANICAL_DESIGN_GEOMETRIC_PRESENTATION_REPRESENTATION (  '', ( #244 ), #235 ) ;
#220 = SURFACE_STYLE_FILL_AREA ( #73 ) ;
#221 = FILL_AREA_STYLE ('',( #106 ) ) ;
#222 = DIRECTION ( 'NONE',  ( 0.0000000000000000000, -1.000000000000000000, 0.0000000000000000000 ) ) ;
#223 = CARTESIAN_POINT ( 'NONE',  ( -110.0000000000000000, 34.99999999999999300, 20.00000000000000400 ) ) ;
#224 = MECHANICAL_DESIGN_GEOMETRIC_PRESENTATION_REPRESENTATION (  '', ( #206 ), #144 ) ;
#225 = DIRECTION ( 'NONE',  ( 1.000000000000000000, 0.0000000000000000000, 0.0000000000000000000 ) ) ;
#226 = DIRECTION ( 'NONE',  ( 1.000000000000000000, 0.0000000000000000000, 0.0000000000000000000 ) ) ;
#227 = FILL_AREA_STYLE_COLOUR ( '', #58 ) ;
#228 = FILL_AREA_STYLE ('',( #161 ) ) ;
#229 = DIRECTION ( 'NONE',  ( 0.0000000000000000000, 0.0000000000000000000, -1.000000000000000000 ) ) ;
#230 = CARTESIAN_POINT ( 'NONE',  ( -110.0000000000000000, -35.00000000000000700, 20.00000000000000400 ) ) ;
#231 = UNCERTAINTY_MEASURE_WITH_UNIT (LENGTH_MEASURE( 1.000000000000000100E-005 ), #114, 'distance_accuracy_value', 'NONE');
#232 = PRODUCT_RELATED_PRODUCT_CATEGORY ( 'part', '', ( #117 ) ) ;
#233 = PRESENTATION_STYLE_ASSIGNMENT (( #138 ) ) ;
#234 =( NAMED_UNIT ( * ) SI_UNIT ( $, .STERADIAN. ) SOLID_ANGLE_UNIT ( ) );
#235 =( GEOMETRIC_REPRESENTATION_CONTEXT ( 3 ) GLOBAL_UNCERTAINTY_ASSIGNED_CONTEXT ( ( #143 ) ) GLOBAL_UNIT_ASSIGNED_CONTEXT ( ( #109, #273, #116 ) ) REPRESENTATION_CONTEXT ( 'NONE', 'WORKASPACE' ) );
#236 = EDGE_LOOP ( 'NONE', ( #127, #278, #115, #187 ) ) ;
#237 = SURFACE_SIDE_STYLE ('',( #59 ) ) ;
#238 = PLANE ( 'NONE',  #193 ) ;
#239 =( NAMED_UNIT ( * ) PLANE_ANGLE_UNIT ( ) SI_UNIT ( $, .RADIAN. ) );
#240 =( NAMED_UNIT ( * ) SI_UNIT ( $, .STERADIAN. ) SOLID_ANGLE_UNIT ( ) );
#241 = SURFACE_STYLE_USAGE ( .BOTH. , #50 ) ;
#242 = DIRECTION ( 'NONE',  ( 0.0000000000000000000, -0.0000000000000000000, 1.000000000000000000 ) ) ;
#243 = CARTESIAN_POINT ( 'NONE',  ( 10.00000000000000000, 34.99999999999999300, 20.00000000000000400 ) ) ;
#244 = STYLED_ITEM ( 'NONE', ( #102 ), #173 ) ;
#245 = PRESENTATION_LAYER_ASSIGNMENT (  '', '', ( #217 ) ) ;
#246 = SURFACE_STYLE_USAGE ( .BOTH. , #3 ) ;
#247 =( NAMED_UNIT ( * ) PLANE_ANGLE_UNIT ( ) SI_UNIT ( $, .RADIAN. ) );
#248 = MECHANICAL_DESIGN_GEOMETRIC_PRESENTATION_REPRESENTATION (  '', ( #286 ), #49 ) ;
#249 = ORIENTED_EDGE ( 'NONE', *, *, #259, .F. ) ;
#250 = PRESENTATION_LAYER_ASSIGNMENT (  '', '', ( #244 ) ) ;
#251 =( NAMED_UNIT ( * ) SI_UNIT ( $, .STERADIAN. ) SOLID_ANGLE_UNIT ( ) );
#252 = PRESENTATION_LAYER_ASSIGNMENT (  '', '', ( #51 ) ) ;
#253 = AXIS2_PLACEMENT_3D ( 'NONE', #148, #66, #225 ) ;
#254 = PRESENTATION_LAYER_ASSIGNMENT (  '', '', ( #212 ) ) ;
#255 = EDGE_CURVE ( 'NONE', #23, #205, #29, .T. ) ;
#256 = EDGE_CURVE ( 'NONE', #23, #182, #35, .T. ) ;
#257 = SURFACE_SIDE_STYLE ('',( #214 ) ) ;
#258 = MECHANICAL_DESIGN_GEOMETRIC_PRESENTATION_REPRESENTATION (  '', ( #261 ), #122 ) ;
#259 = EDGE_CURVE ( 'NONE', #113, #55, #44, .T. ) ;
#260 = ORIENTED_EDGE ( 'NONE', *, *, #6, .F. ) ;
#261 = STYLED_ITEM ( 'NONE', ( #54 ), #132 ) ;
#262 = EDGE_CURVE ( 'NONE', #208, #139, #104, .T. ) ;
#263 = EDGE_CURVE ( 'NONE', #55, #205, #47, .T. ) ;
#264 = CARTESIAN_POINT ( 'NONE',  ( -110.0000000000000000, 34.99999999999999300, -19.99999999999999600 ) ) ;
#265 =( GEOMETRIC_REPRESENTATION_CONTEXT ( 3 ) GLOBAL_UNCERTAINTY_ASSIGNED_CONTEXT ( ( #42 ) ) GLOBAL_UNIT_ASSIGNED_CONTEXT ( ( #271, #155, #240 ) ) REPRESENTATION_CONTEXT ( 'NONE', 'WORKASPACE' ) );
#266 = STYLED_ITEM ( 'NONE', ( #105 ), #107 ) ;
#267 = DIRECTION ( 'NONE',  ( 0.0000000000000000000, 0.0000000000000000000, 1.000000000000000000 ) ) ;
#268 = ORIENTED_EDGE ( 'NONE', *, *, #210, .F. ) ;
#269 = ORIENTED_EDGE ( 'NONE', *, *, #211, .T. ) ;
#270 = PLANE ( 'NONE',  #165 ) ;
#271 =( LENGTH_UNIT ( ) NAMED_UNIT ( * ) SI_UNIT ( .MILLI., .METRE. ) );
#272 =( NAMED_UNIT ( * ) PLANE_ANGLE_UNIT ( ) SI_UNIT ( $, .RADIAN. ) );
#273 =( NAMED_UNIT ( * ) PLANE_ANGLE_UNIT ( ) SI_UNIT ( $, .RADIAN. ) );
#274 = ORIENTED_EDGE ( 'NONE', *, *, #262, .F. ) ;
#275 =( GEOMETRIC_REPRESENTATION_CONTEXT ( 3 ) GLOBAL_UNCERTAINTY_ASSIGNED_CONTEXT ( ( #135 ) ) GLOBAL_UNIT_ASSIGNED_CONTEXT ( ( #38, #159, #198 ) ) REPRESENTATION_CONTEXT ( 'NONE', 'WORKASPACE' ) );
#276 = ORIENTED_EDGE ( 'NONE', *, *, #78, .T. ) ;
#277 = LINE ( 'NONE', #204, #28 ) ;
#278 = ORIENTED_EDGE ( 'NONE', *, *, #211, .F. ) ;
#279 =( LENGTH_UNIT ( ) NAMED_UNIT ( * ) SI_UNIT ( .MILLI., .METRE. ) );
#280 = CARTESIAN_POINT ( 'NONE',  ( -110.0000000000000000, -35.00000000000000700, -19.99999999999999600 ) ) ;
#281 = FILL_AREA_STYLE_COLOUR ( '', #174 ) ;
#282 = MECHANICAL_DESIGN_GEOMETRIC_PRESENTATION_REPRESENTATION (  '', ( #212 ), #265 ) ;
#283 = ORIENTED_EDGE ( 'NONE', *, *, #85, .F. ) ;
#284 = FACE_OUTER_BOUND ( 'NONE', #156, .T. ) ;
#285 =( GEOMETRIC_REPRESENTATION_CONTEXT ( 3 ) GLOBAL_UNCERTAINTY_ASSIGNED_CONTEXT ( ( #124 ) ) GLOBAL_UNIT_ASSIGNED_CONTEXT ( ( #288, #239, #191 ) ) REPRESENTATION_CONTEXT ( 'NONE', 'WORKASPACE' ) );
#286 = STYLED_ITEM ( 'NONE', ( #233 ), #2 ) ;
#287 = ORIENTED_EDGE ( 'NONE', *, *, #87, .T. ) ;
#288 =( LENGTH_UNIT ( ) NAMED_UNIT ( * ) SI_UNIT ( .MILLI., .METRE. ) );
#289 = CARTESIAN_POINT ( 'NONE',  ( 10.00000000000000000, 34.99999999999999300, -19.99999999999999600 ) ) ;
#290 = ORIENTED_EDGE ( 'NONE', *, *, #263, .T. ) ;
#291 = ORIENTED_EDGE ( 'NONE', *, *, #259, .T. ) ;
#292 = AXIS2_PLACEMENT_3D ( 'NONE', #86, #137, #267 ) ;
ENDSEC;
END-ISO-10303-21;
