ISO-10303-21;
HEADER;
FILE_DESCRIPTION (( 'STEP AP214' ),
    '1' );
FILE_NAME ('7202297_KSTP1.stp',
    '2018-08-28T08:33:47',
    ( '' ),
    ( '' ),
    'SwSTEP 2.0',
    'SolidWorks 2016',
    '' );
FILE_SCHEMA (( 'AUTOMOTIVE_DESIGN' ));
ENDSEC;

DATA;
#1 = SURFACE_SIDE_STYLE ('',( #122 ) ) ;
#2 = STYLED_ITEM ( 'NONE', ( #127 ), #43 ) ;
#3 = UNCERTAINTY_MEASURE_WITH_UNIT (LENGTH_MEASURE( 1.000000000000000100E-005 ), #204, 'distance_accuracy_value', 'NONE');
#4 = CARTESIAN_POINT ( 'NONE',  ( 500.0000000000000000, 300.0000000000000600, 30.00000000000000000 ) ) ;
#5 = DIRECTION ( 'NONE',  ( -0.0000000000000000000, 0.0000000000000000000, -1.000000000000000000 ) ) ;
#6 = FILL_AREA_STYLE ('',( #185 ) ) ;
#7 =( NAMED_UNIT ( * ) PLANE_ANGLE_UNIT ( ) SI_UNIT ( $, .RADIAN. ) );
#8 =( NAMED_UNIT ( * ) PLANE_ANGLE_UNIT ( ) SI_UNIT ( $, .RADIAN. ) );
#9 = ORIENTED_EDGE ( 'NONE', *, *, #58, .T. ) ;
#10 = FILL_AREA_STYLE ('',( #277 ) ) ;
#11 = CARTESIAN_POINT ( 'NONE',  ( 0.0000000000000000000, 0.0000000000000000000, 0.0000000000000000000 ) ) ;
#12 = SURFACE_STYLE_FILL_AREA ( #72 ) ;
#13 = DIRECTION ( 'NONE',  ( 1.000000000000000000, 1.110223024625156500E-016, -0.0000000000000000000 ) ) ;
#14 = VERTEX_POINT ( 'NONE', #245 ) ;
#15 = PRODUCT_DEFINITION_FORMATION_WITH_SPECIFIED_SOURCE ( 'ANY', '', #109, .NOT_KNOWN. ) ;
#16 = ADVANCED_FACE ( 'NONE', ( #247 ), #287, .T. ) ;
#17 = UNCERTAINTY_MEASURE_WITH_UNIT (LENGTH_MEASURE( 1.000000000000000100E-005 ), #272, 'distance_accuracy_value', 'NONE');
#18 = AXIS2_PLACEMENT_3D ( 'NONE', #70, #115, #73 ) ;
#19 = ORIENTED_EDGE ( 'NONE', *, *, #38, .F. ) ;
#20 = EDGE_CURVE ( 'NONE', #46, #253, #161, .T. ) ;
#21 = PRESENTATION_STYLE_ASSIGNMENT (( #139 ) ) ;
#22 = VERTEX_POINT ( 'NONE', #49 ) ;
#23 = DIRECTION ( 'NONE',  ( -0.0000000000000000000, -0.0000000000000000000, -1.000000000000000000 ) ) ;
#24 = CARTESIAN_POINT ( 'NONE',  ( 500.0000000000000000, 300.0000000000000600, 30.00000000000000000 ) ) ;
#25 =( GEOMETRIC_REPRESENTATION_CONTEXT ( 3 ) GLOBAL_UNCERTAINTY_ASSIGNED_CONTEXT ( ( #36 ) ) GLOBAL_UNIT_ASSIGNED_CONTEXT ( ( #81, #120, #255 ) ) REPRESENTATION_CONTEXT ( 'NONE', 'WORKASPACE' ) );
#26 = LINE ( 'NONE', #138, #98 ) ;
#27 = CARTESIAN_POINT ( 'NONE',  ( -500.0000000000000000, -300.0000000000000600, 30.00000000000000000 ) ) ;
#28 =( LENGTH_UNIT ( ) NAMED_UNIT ( * ) SI_UNIT ( .MILLI., .METRE. ) );
#29 = FILL_AREA_STYLE ('',( #167 ) ) ;
#30 = VECTOR ( 'NONE', #97, 1000.000000000000000 ) ;
#31 = ORIENTED_EDGE ( 'NONE', *, *, #149, .T. ) ;
#32 = CARTESIAN_POINT ( 'NONE',  ( 500.0000000000000000, 300.0000000000000600, 30.00000000000000000 ) ) ;
#33 =( NAMED_UNIT ( * ) SI_UNIT ( $, .STERADIAN. ) SOLID_ANGLE_UNIT ( ) );
#34 =( LENGTH_UNIT ( ) NAMED_UNIT ( * ) SI_UNIT ( .MILLI., .METRE. ) );
#35 = ORIENTED_EDGE ( 'NONE', *, *, #20, .F. ) ;
#36 = UNCERTAINTY_MEASURE_WITH_UNIT (LENGTH_MEASURE( 1.000000000000000100E-005 ), #81, 'distance_accuracy_value', 'NONE');
#37 = FILL_AREA_STYLE ('',( #108 ) ) ;
#38 = EDGE_CURVE ( 'NONE', #253, #14, #283, .T. ) ;
#39 = FACE_OUTER_BOUND ( 'NONE', #151, .T. ) ;
#40 = EDGE_LOOP ( 'NONE', ( #107, #197, #261, #162 ) ) ;
#41 = MECHANICAL_DESIGN_GEOMETRIC_PRESENTATION_REPRESENTATION (  '', ( #199 ), #25 ) ;
#42 = SHAPE_DEFINITION_REPRESENTATION ( #59, #77 ) ;
#43 = ADVANCED_FACE ( 'NONE', ( #176 ), #155, .F. ) ;
#44 = SURFACE_STYLE_FILL_AREA ( #256 ) ;
#45 = LINE ( 'NONE', #4, #262 ) ;
#46 = VERTEX_POINT ( 'NONE', #137 ) ;
#47 = PRESENTATION_LAYER_ASSIGNMENT (  '', '', ( #236 ) ) ;
#48 =( NAMED_UNIT ( * ) PLANE_ANGLE_UNIT ( ) SI_UNIT ( $, .RADIAN. ) );
#49 = CARTESIAN_POINT ( 'NONE',  ( -500.0000000000000000, -300.0000000000000600, 30.00000000000000000 ) ) ;
#50 = CARTESIAN_POINT ( 'NONE',  ( 500.0000000000000000, 300.0000000000000600, -30.00000000000000000 ) ) ;
#51 = EDGE_CURVE ( 'NONE', #200, #14, #45, .T. ) ;
#52 = COLOUR_RGB ( '',0.5019607843137254800, 0.5019607843137254800, 0.0000000000000000000 ) ;
#53 = DIRECTION ( 'NONE',  ( -1.000000000000000000, -1.110223024625156500E-016, 0.0000000000000000000 ) ) ;
#54 = SURFACE_SIDE_STYLE ('',( #175 ) ) ;
#55 =( GEOMETRIC_REPRESENTATION_CONTEXT ( 3 ) GLOBAL_UNCERTAINTY_ASSIGNED_CONTEXT ( ( #82 ) ) GLOBAL_UNIT_ASSIGNED_CONTEXT ( ( #61, #106, #212 ) ) REPRESENTATION_CONTEXT ( 'NONE', 'WORKASPACE' ) );
#56 = CARTESIAN_POINT ( 'NONE',  ( -500.0000000000000000, 299.9999999999999400, -30.00000000000000000 ) ) ;
#57 = DIRECTION ( 'NONE',  ( -1.000000000000000000, -1.110223024625156500E-016, 0.0000000000000000000 ) ) ;
#58 = EDGE_CURVE ( 'NONE', #22, #219, #216, .T. ) ;
#59 = PRODUCT_DEFINITION_SHAPE ( 'NONE', 'NONE',  #86 ) ;
#60 = PRESENTATION_LAYER_ASSIGNMENT (  '', '', ( #199 ) ) ;
#61 =( LENGTH_UNIT ( ) NAMED_UNIT ( * ) SI_UNIT ( .MILLI., .METRE. ) );
#62 = AXIS2_PLACEMENT_3D ( 'NONE', #228, #292, #181 ) ;
#63 = FACE_OUTER_BOUND ( 'NONE', #265, .T. ) ;
#64 = UNCERTAINTY_MEASURE_WITH_UNIT (LENGTH_MEASURE( 1.000000000000000100E-005 ), #99, 'distance_accuracy_value', 'NONE');
#65 = CLOSED_SHELL ( 'NONE', ( #218, #88, #196, #131, #43, #16 ) ) ;
#66 = SURFACE_STYLE_USAGE ( .BOTH. , #152 ) ;
#67 =( GEOMETRIC_REPRESENTATION_CONTEXT ( 3 ) GLOBAL_UNCERTAINTY_ASSIGNED_CONTEXT ( ( #64 ) ) GLOBAL_UNIT_ASSIGNED_CONTEXT ( ( #99, #207, #251 ) ) REPRESENTATION_CONTEXT ( 'NONE', 'WORKASPACE' ) );
#68 =( NAMED_UNIT ( * ) PLANE_ANGLE_UNIT ( ) SI_UNIT ( $, .RADIAN. ) );
#69 = MECHANICAL_DESIGN_GEOMETRIC_PRESENTATION_REPRESENTATION (  '', ( #194 ), #174 ) ;
#70 = CARTESIAN_POINT ( 'NONE',  ( 0.0000000000000000000, 0.0000000000000000000, -30.00000000000000000 ) ) ;
#71 = ORIENTED_EDGE ( 'NONE', *, *, #58, .F. ) ;
#72 = FILL_AREA_STYLE ('',( #100 ) ) ;
#73 = DIRECTION ( 'NONE',  ( -1.000000000000000000, 0.0000000000000000000, -0.0000000000000000000 ) ) ;
#74 = FILL_AREA_STYLE_COLOUR ( '', #52 ) ;
#75 = VECTOR ( 'NONE', #57, 1000.000000000000000 ) ;
#76 =( NAMED_UNIT ( * ) PLANE_ANGLE_UNIT ( ) SI_UNIT ( $, .RADIAN. ) );
#77 = ADVANCED_BREP_SHAPE_REPRESENTATION ( '7202297_KSTP1', ( #134, #232 ), #55 ) ;
#78 = CARTESIAN_POINT ( 'NONE',  ( -500.0000000000000000, 299.9999999999999400, 30.00000000000000000 ) ) ;
#79 = VECTOR ( 'NONE', #280, 1000.000000000000000 ) ;
#80 = DIRECTION ( 'NONE',  ( 1.000000000000000000, 1.110223024625156500E-016, -0.0000000000000000000 ) ) ;
#81 =( LENGTH_UNIT ( ) NAMED_UNIT ( * ) SI_UNIT ( .MILLI., .METRE. ) );
#82 = UNCERTAINTY_MEASURE_WITH_UNIT (LENGTH_MEASURE( 1.000000000000000100E-005 ), #61, 'distance_accuracy_value', 'NONE');
#83 = PRESENTATION_STYLE_ASSIGNMENT (( #254 ) ) ;
#84 = PRODUCT_CONTEXT ( 'NONE', #260, 'mechanical' ) ;
#85 =( GEOMETRIC_REPRESENTATION_CONTEXT ( 3 ) GLOBAL_UNCERTAINTY_ASSIGNED_CONTEXT ( ( #3 ) ) GLOBAL_UNIT_ASSIGNED_CONTEXT ( ( #204, #48, #96 ) ) REPRESENTATION_CONTEXT ( 'NONE', 'WORKASPACE' ) );
#86 = PRODUCT_DEFINITION ( 'UNKNOWN', '', #15, #113 ) ;
#87 = SURFACE_STYLE_FILL_AREA ( #29 ) ;
#88 = ADVANCED_FACE ( 'NONE', ( #63 ), #246, .F. ) ;
#89 = ORIENTED_EDGE ( 'NONE', *, *, #173, .T. ) ;
#90 = VERTEX_POINT ( 'NONE', #119 ) ;
#91 = MECHANICAL_DESIGN_GEOMETRIC_PRESENTATION_REPRESENTATION (  '', ( #177 ), #225 ) ;
#92 = UNCERTAINTY_MEASURE_WITH_UNIT (LENGTH_MEASURE( 1.000000000000000100E-005 ), #201, 'distance_accuracy_value', 'NONE');
#93 = FACE_OUTER_BOUND ( 'NONE', #40, .T. ) ;
#94 = EDGE_LOOP ( 'NONE', ( #213, #148, #157, #142 ) ) ;
#95 = MECHANICAL_DESIGN_GEOMETRIC_PRESENTATION_REPRESENTATION (  '', ( #236 ), #85 ) ;
#96 =( NAMED_UNIT ( * ) SI_UNIT ( $, .STERADIAN. ) SOLID_ANGLE_UNIT ( ) );
#97 = DIRECTION ( 'NONE',  ( -1.850371707708594300E-016, 1.000000000000000000, -0.0000000000000000000 ) ) ;
#98 = VECTOR ( 'NONE', #53, 1000.000000000000000 ) ;
#99 =( LENGTH_UNIT ( ) NAMED_UNIT ( * ) SI_UNIT ( .MILLI., .METRE. ) );
#100 = FILL_AREA_STYLE_COLOUR ( '', #279 ) ;
#101 = FACE_OUTER_BOUND ( 'NONE', #94, .T. ) ;
#102 = ORIENTED_EDGE ( 'NONE', *, *, #244, .T. ) ;
#103 = FILL_AREA_STYLE_COLOUR ( '', #215 ) ;
#104 = PLANE ( 'NONE',  #267 ) ;
#105 = DIRECTION ( 'NONE',  ( 1.850371707708594600E-016, -1.000000000000000000, 0.0000000000000000000 ) ) ;
#106 =( NAMED_UNIT ( * ) PLANE_ANGLE_UNIT ( ) SI_UNIT ( $, .RADIAN. ) );
#107 = ORIENTED_EDGE ( 'NONE', *, *, #156, .T. ) ;
#108 = FILL_AREA_STYLE_COLOUR ( '', #184 ) ;
#109 = PRODUCT ( '7202297_KSTP1', '7202297_KSTP1', '', ( #84 ) ) ;
#110 = CARTESIAN_POINT ( 'NONE',  ( 500.0000000000001100, -299.9999999999999400, -30.00000000000000000 ) ) ;
#111 = VERTEX_POINT ( 'NONE', #227 ) ;
#112 = VECTOR ( 'NONE', #249, 1000.000000000000000 ) ;
#113 = PRODUCT_DEFINITION_CONTEXT ( 'detailed design', #147, 'design' ) ;
#114 = PRESENTATION_LAYER_ASSIGNMENT (  '', '', ( #241 ) ) ;
#115 = DIRECTION ( 'NONE',  ( 0.0000000000000000000, 0.0000000000000000000, -1.000000000000000000 ) ) ;
#116 = UNCERTAINTY_MEASURE_WITH_UNIT (LENGTH_MEASURE( 1.000000000000000100E-005 ), #34, 'distance_accuracy_value', 'NONE');
#117 = CARTESIAN_POINT ( 'NONE',  ( 500.0000000000001100, -299.9999999999999400, 30.00000000000000000 ) ) ;
#118 = EDGE_CURVE ( 'NONE', #200, #90, #193, .T. ) ;
#119 = CARTESIAN_POINT ( 'NONE',  ( -500.0000000000000000, 299.9999999999999400, 30.00000000000000000 ) ) ;
#120 =( NAMED_UNIT ( * ) PLANE_ANGLE_UNIT ( ) SI_UNIT ( $, .RADIAN. ) );
#121 = PRESENTATION_LAYER_ASSIGNMENT (  '', '', ( #202 ) ) ;
#122 = SURFACE_STYLE_FILL_AREA ( #158 ) ;
#123 = ORIENTED_EDGE ( 'NONE', *, *, #198, .T. ) ;
#124 = DIRECTION ( 'NONE',  ( 1.000000000000000000, 0.0000000000000000000, -0.0000000000000000000 ) ) ;
#125 = SURFACE_STYLE_FILL_AREA ( #37 ) ;
#126 = DIRECTION ( 'NONE',  ( 1.000000000000000000, 0.0000000000000000000, 0.0000000000000000000 ) ) ;
#127 = PRESENTATION_STYLE_ASSIGNMENT (( #180 ) ) ;
#128 = AXIS2_PLACEMENT_3D ( 'NONE', #233, #183, #136 ) ;
#129 =( GEOMETRIC_REPRESENTATION_CONTEXT ( 3 ) GLOBAL_UNCERTAINTY_ASSIGNED_CONTEXT ( ( #221 ) ) GLOBAL_UNIT_ASSIGNED_CONTEXT ( ( #235, #7, #33 ) ) REPRESENTATION_CONTEXT ( 'NONE', 'WORKASPACE' ) );
#130 = EDGE_CURVE ( 'NONE', #90, #22, #274, .T. ) ;
#131 = ADVANCED_FACE ( 'NONE', ( #93 ), #278, .F. ) ;
#132 = VECTOR ( 'NONE', #13, 1000.000000000000000 ) ;
#133 = MECHANICAL_DESIGN_GEOMETRIC_PRESENTATION_REPRESENTATION (  '', ( #202 ), #179 ) ;
#134 = MANIFOLD_SOLID_BREP ( 'Austragen', #65 ) ;
#135 = ORIENTED_EDGE ( 'NONE', *, *, #198, .F. ) ;
#136 = DIRECTION ( 'NONE',  ( -1.000000000000000000, 0.0000000000000000000, -0.0000000000000000000 ) ) ;
#137 = CARTESIAN_POINT ( 'NONE',  ( 500.0000000000001100, -299.9999999999999400, 30.00000000000000000 ) ) ;
#138 = CARTESIAN_POINT ( 'NONE',  ( 500.0000000000000000, 300.0000000000000600, -30.00000000000000000 ) ) ;
#139 = SURFACE_STYLE_USAGE ( .BOTH. , #275 ) ;
#140 = VECTOR ( 'NONE', #159, 1000.000000000000000 ) ;
#141 =( NAMED_UNIT ( * ) SI_UNIT ( $, .STERADIAN. ) SOLID_ANGLE_UNIT ( ) );
#142 = ORIENTED_EDGE ( 'NONE', *, *, #20, .T. ) ;
#143 = DIRECTION ( 'NONE',  ( 1.110223024625156500E-016, -1.000000000000000000, 0.0000000000000000000 ) ) ;
#144 = SURFACE_STYLE_USAGE ( .BOTH. , #209 ) ;
#145 =( NAMED_UNIT ( * ) PLANE_ANGLE_UNIT ( ) SI_UNIT ( $, .RADIAN. ) );
#146 = AXIS2_PLACEMENT_3D ( 'NONE', #78, #124, #5 ) ;
#147 = APPLICATION_CONTEXT ( 'automotive_design' ) ;
#148 = ORIENTED_EDGE ( 'NONE', *, *, #51, .F. ) ;
#149 = EDGE_CURVE ( 'NONE', #22, #46, #266, .T. ) ;
#150 = VECTOR ( 'NONE', #80, 1000.000000000000000 ) ;
#151 = EDGE_LOOP ( 'NONE', ( #123, #71, #217, #89 ) ) ;
#152 = SURFACE_SIDE_STYLE ('',( #190 ) ) ;
#153 = ORIENTED_EDGE ( 'NONE', *, *, #118, .T. ) ;
#154 = AXIS2_PLACEMENT_3D ( 'NONE', #188, #143, #276 ) ;
#155 = PLANE ( 'NONE',  #128 ) ;
#156 = EDGE_CURVE ( 'NONE', #14, #111, #26, .T. ) ;
#157 = ORIENTED_EDGE ( 'NONE', *, *, #220, .F. ) ;
#158 = FILL_AREA_STYLE ('',( #74 ) ) ;
#159 = DIRECTION ( 'NONE',  ( -0.0000000000000000000, -0.0000000000000000000, -1.000000000000000000 ) ) ;
#160 = PRESENTATION_STYLE_ASSIGNMENT (( #238 ) ) ;
#161 = LINE ( 'NONE', #117, #291 ) ;
#162 = ORIENTED_EDGE ( 'NONE', *, *, #51, .T. ) ;
#163 = CARTESIAN_POINT ( 'NONE',  ( -500.0000000000000000, -300.0000000000000600, -30.00000000000000000 ) ) ;
#164 =( NAMED_UNIT ( * ) SI_UNIT ( $, .STERADIAN. ) SOLID_ANGLE_UNIT ( ) );
#165 =( GEOMETRIC_REPRESENTATION_CONTEXT ( 3 ) GLOBAL_UNCERTAINTY_ASSIGNED_CONTEXT ( ( #92 ) ) GLOBAL_UNIT_ASSIGNED_CONTEXT ( ( #201, #68, #268 ) ) REPRESENTATION_CONTEXT ( 'NONE', 'WORKASPACE' ) );
#166 = CARTESIAN_POINT ( 'NONE',  ( 500.0000000000000000, 300.0000000000000600, 30.00000000000000000 ) ) ;
#167 = FILL_AREA_STYLE_COLOUR ( '', #229 ) ;
#168 = COLOUR_RGB ( '',0.5019607843137254800, 0.5019607843137254800, 0.0000000000000000000 ) ;
#169 = PRESENTATION_LAYER_ASSIGNMENT (  '', '', ( #248 ) ) ;
#170 = CARTESIAN_POINT ( 'NONE',  ( 500.0000000000001100, -299.9999999999999400, -30.00000000000000000 ) ) ;
#171 = PRESENTATION_STYLE_ASSIGNMENT (( #281 ) ) ;
#172 = PRESENTATION_LAYER_ASSIGNMENT (  '', '', ( #2 ) ) ;
#173 = EDGE_CURVE ( 'NONE', #90, #111, #259, .T. ) ;
#174 =( GEOMETRIC_REPRESENTATION_CONTEXT ( 3 ) GLOBAL_UNCERTAINTY_ASSIGNED_CONTEXT ( ( #116 ) ) GLOBAL_UNIT_ASSIGNED_CONTEXT ( ( #34, #145, #192 ) ) REPRESENTATION_CONTEXT ( 'NONE', 'WORKASPACE' ) );
#175 = SURFACE_STYLE_FILL_AREA ( #10 ) ;
#176 = FACE_OUTER_BOUND ( 'NONE', #263, .T. ) ;
#177 = STYLED_ITEM ( 'NONE', ( #160 ), #218 ) ;
#178 = UNCERTAINTY_MEASURE_WITH_UNIT (LENGTH_MEASURE( 1.000000000000000100E-005 ), #28, 'distance_accuracy_value', 'NONE');
#179 =( GEOMETRIC_REPRESENTATION_CONTEXT ( 3 ) GLOBAL_UNCERTAINTY_ASSIGNED_CONTEXT ( ( #17 ) ) GLOBAL_UNIT_ASSIGNED_CONTEXT ( ( #272, #8, #141 ) ) REPRESENTATION_CONTEXT ( 'NONE', 'WORKASPACE' ) );
#180 = SURFACE_STYLE_USAGE ( .BOTH. , #271 ) ;
#181 = DIRECTION ( 'NONE',  ( -1.000000000000000000, -1.110223024625156500E-016, 0.0000000000000000000 ) ) ;
#182 = PRODUCT_RELATED_PRODUCT_CATEGORY ( 'part', '', ( #109 ) ) ;
#183 = DIRECTION ( 'NONE',  ( 0.0000000000000000000, 0.0000000000000000000, -1.000000000000000000 ) ) ;
#184 = COLOUR_RGB ( '',1.000000000000000000, 1.000000000000000000, 0.0000000000000000000 ) ;
#185 = FILL_AREA_STYLE_COLOUR ( '', #234 ) ;
#186 = CARTESIAN_POINT ( 'NONE',  ( -500.0000000000000000, 299.9999999999999400, 30.00000000000000000 ) ) ;
#187 = MECHANICAL_DESIGN_GEOMETRIC_PRESENTATION_REPRESENTATION (  '', ( #2 ), #67 ) ;
#188 = CARTESIAN_POINT ( 'NONE',  ( 500.0000000000000000, 300.0000000000000600, 30.00000000000000000 ) ) ;
#189 = DIRECTION ( 'NONE',  ( 0.0000000000000000000, -1.000000000000000000, 0.0000000000000000000 ) ) ;
#190 = SURFACE_STYLE_FILL_AREA ( #242 ) ;
#191 = DIRECTION ( 'NONE',  ( -1.000000000000000000, -1.850371707708594600E-016, 0.0000000000000000000 ) ) ;
#192 =( NAMED_UNIT ( * ) SI_UNIT ( $, .STERADIAN. ) SOLID_ANGLE_UNIT ( ) );
#193 = LINE ( 'NONE', #24, #75 ) ;
#194 = STYLED_ITEM ( 'NONE', ( #171 ), #77 ) ;
#195 = APPLICATION_PROTOCOL_DEFINITION ( 'draft international standard', 'automotive_design', 1998, #260 ) ;
#196 = ADVANCED_FACE ( 'NONE', ( #101 ), #104, .F. ) ;
#197 = ORIENTED_EDGE ( 'NONE', *, *, #173, .F. ) ;
#198 = EDGE_CURVE ( 'NONE', #111, #219, #243, .T. ) ;
#199 = STYLED_ITEM ( 'NONE', ( #83 ), #134 ) ;
#200 = VERTEX_POINT ( 'NONE', #208 ) ;
#201 =( LENGTH_UNIT ( ) NAMED_UNIT ( * ) SI_UNIT ( .MILLI., .METRE. ) );
#202 = STYLED_ITEM ( 'NONE', ( #21 ), #131 ) ;
#203 = ORIENTED_EDGE ( 'NONE', *, *, #130, .T. ) ;
#204 =( LENGTH_UNIT ( ) NAMED_UNIT ( * ) SI_UNIT ( .MILLI., .METRE. ) );
#205 = DIRECTION ( 'NONE',  ( -0.0000000000000000000, -0.0000000000000000000, -1.000000000000000000 ) ) ;
#206 = PRESENTATION_STYLE_ASSIGNMENT (( #66 ) ) ;
#207 =( NAMED_UNIT ( * ) PLANE_ANGLE_UNIT ( ) SI_UNIT ( $, .RADIAN. ) );
#208 = CARTESIAN_POINT ( 'NONE',  ( 500.0000000000000000, 300.0000000000000600, 30.00000000000000000 ) ) ;
#209 = SURFACE_SIDE_STYLE ('',( #273 ) ) ;
#210 = ORIENTED_EDGE ( 'NONE', *, *, #244, .F. ) ;
#211 = SURFACE_SIDE_STYLE ('',( #44 ) ) ;
#212 =( NAMED_UNIT ( * ) SI_UNIT ( $, .STERADIAN. ) SOLID_ANGLE_UNIT ( ) );
#213 = ORIENTED_EDGE ( 'NONE', *, *, #38, .T. ) ;
#214 = SURFACE_SIDE_STYLE ('',( #125 ) ) ;
#215 = COLOUR_RGB ( '',1.000000000000000000, 1.000000000000000000, 0.0000000000000000000 ) ;
#216 = LINE ( 'NONE', #27, #112 ) ;
#217 = ORIENTED_EDGE ( 'NONE', *, *, #130, .F. ) ;
#218 = ADVANCED_FACE ( 'NONE', ( #39 ), #239, .F. ) ;
#219 = VERTEX_POINT ( 'NONE', #163 ) ;
#220 = EDGE_CURVE ( 'NONE', #46, #200, #222, .T. ) ;
#221 = UNCERTAINTY_MEASURE_WITH_UNIT (LENGTH_MEASURE( 1.000000000000000100E-005 ), #235, 'distance_accuracy_value', 'NONE');
#222 = LINE ( 'NONE', #32, #79 ) ;
#223 = VECTOR ( 'NONE', #189, 1000.000000000000000 ) ;
#224 = EDGE_LOOP ( 'NONE', ( #135, #269, #19, #210 ) ) ;
#225 =( GEOMETRIC_REPRESENTATION_CONTEXT ( 3 ) GLOBAL_UNCERTAINTY_ASSIGNED_CONTEXT ( ( #178 ) ) GLOBAL_UNIT_ASSIGNED_CONTEXT ( ( #28, #76, #164 ) ) REPRESENTATION_CONTEXT ( 'NONE', 'WORKASPACE' ) );
#226 = FILL_AREA_STYLE_COLOUR ( '', #168 ) ;
#227 = CARTESIAN_POINT ( 'NONE',  ( -500.0000000000000000, 299.9999999999999400, -30.00000000000000000 ) ) ;
#228 = CARTESIAN_POINT ( 'NONE',  ( 500.0000000000001100, -299.9999999999999400, 30.00000000000000000 ) ) ;
#229 = COLOUR_RGB ( '',0.5019607843137254800, 0.5019607843137254800, 0.0000000000000000000 ) ;
#230 = ORIENTED_EDGE ( 'NONE', *, *, #220, .T. ) ;
#231 = CARTESIAN_POINT ( 'NONE',  ( -500.0000000000000000, 299.9999999999999400, 30.00000000000000000 ) ) ;
#232 = AXIS2_PLACEMENT_3D ( 'NONE', #11, #240, #126 ) ;
#233 = CARTESIAN_POINT ( 'NONE',  ( 0.0000000000000000000, 0.0000000000000000000, 30.00000000000000000 ) ) ;
#234 = COLOUR_RGB ( '',0.5019607843137254800, 0.5019607843137254800, 0.0000000000000000000 ) ;
#235 =( LENGTH_UNIT ( ) NAMED_UNIT ( * ) SI_UNIT ( .MILLI., .METRE. ) );
#236 = STYLED_ITEM ( 'NONE', ( #285 ), #88 ) ;
#237 = DIRECTION ( 'NONE',  ( 0.0000000000000000000, -1.000000000000000000, 0.0000000000000000000 ) ) ;
#238 = SURFACE_STYLE_USAGE ( .BOTH. , #54 ) ;
#239 = PLANE ( 'NONE',  #146 ) ;
#240 = DIRECTION ( 'NONE',  ( 0.0000000000000000000, 0.0000000000000000000, 1.000000000000000000 ) ) ;
#241 = STYLED_ITEM ( 'NONE', ( #206 ), #16 ) ;
#242 = FILL_AREA_STYLE ('',( #226 ) ) ;
#243 = LINE ( 'NONE', #56, #288 ) ;
#244 = EDGE_CURVE ( 'NONE', #219, #253, #282, .T. ) ;
#245 = CARTESIAN_POINT ( 'NONE',  ( 500.0000000000000000, 300.0000000000000600, -30.00000000000000000 ) ) ;
#246 = PLANE ( 'NONE',  #62 ) ;
#247 = FACE_OUTER_BOUND ( 'NONE', #224, .T. ) ;
#248 = STYLED_ITEM ( 'NONE', ( #252 ), #196 ) ;
#249 = DIRECTION ( 'NONE',  ( -0.0000000000000000000, -0.0000000000000000000, -1.000000000000000000 ) ) ;
#250 = MECHANICAL_DESIGN_GEOMETRIC_PRESENTATION_REPRESENTATION (  '', ( #241 ), #165 ) ;
#251 =( NAMED_UNIT ( * ) SI_UNIT ( $, .STERADIAN. ) SOLID_ANGLE_UNIT ( ) );
#252 = PRESENTATION_STYLE_ASSIGNMENT (( #144 ) ) ;
#253 = VERTEX_POINT ( 'NONE', #110 ) ;
#254 = SURFACE_STYLE_USAGE ( .BOTH. , #211 ) ;
#255 =( NAMED_UNIT ( * ) SI_UNIT ( $, .STERADIAN. ) SOLID_ANGLE_UNIT ( ) );
#256 = FILL_AREA_STYLE ('',( #103 ) ) ;
#257 = CARTESIAN_POINT ( 'NONE',  ( 500.0000000000001100, -299.9999999999999400, 30.00000000000000000 ) ) ;
#258 = APPLICATION_PROTOCOL_DEFINITION ( 'draft international standard', 'automotive_design', 1998, #147 ) ;
#259 = LINE ( 'NONE', #186, #140 ) ;
#260 = APPLICATION_CONTEXT ( 'automotive_design' ) ;
#261 = ORIENTED_EDGE ( 'NONE', *, *, #118, .F. ) ;
#262 = VECTOR ( 'NONE', #23, 1000.000000000000000 ) ;
#263 = EDGE_LOOP ( 'NONE', ( #203, #31, #230, #153 ) ) ;
#264 = COLOUR_RGB ( '',0.5019607843137254800, 0.5019607843137254800, 0.0000000000000000000 ) ;
#265 = EDGE_LOOP ( 'NONE', ( #102, #35, #286, #9 ) ) ;
#266 = LINE ( 'NONE', #257, #150 ) ;
#267 = AXIS2_PLACEMENT_3D ( 'NONE', #166, #191, #105 ) ;
#268 =( NAMED_UNIT ( * ) SI_UNIT ( $, .STERADIAN. ) SOLID_ANGLE_UNIT ( ) );
#269 = ORIENTED_EDGE ( 'NONE', *, *, #156, .F. ) ;
#270 = MECHANICAL_DESIGN_GEOMETRIC_PRESENTATION_REPRESENTATION (  '', ( #248 ), #129 ) ;
#271 = SURFACE_SIDE_STYLE ('',( #12 ) ) ;
#272 =( LENGTH_UNIT ( ) NAMED_UNIT ( * ) SI_UNIT ( .MILLI., .METRE. ) );
#273 = SURFACE_STYLE_FILL_AREA ( #6 ) ;
#274 = LINE ( 'NONE', #231, #223 ) ;
#275 = SURFACE_SIDE_STYLE ('',( #87 ) ) ;
#276 = DIRECTION ( 'NONE',  ( 1.000000000000000000, 1.110223024625156500E-016, 0.0000000000000000000 ) ) ;
#277 = FILL_AREA_STYLE_COLOUR ( '', #264 ) ;
#278 = PLANE ( 'NONE',  #154 ) ;
#279 = COLOUR_RGB ( '',0.5019607843137254800, 0.5019607843137254800, 0.0000000000000000000 ) ;
#280 = DIRECTION ( 'NONE',  ( -1.850371707708594300E-016, 1.000000000000000000, -0.0000000000000000000 ) ) ;
#281 = SURFACE_STYLE_USAGE ( .BOTH. , #214 ) ;
#282 = LINE ( 'NONE', #170, #132 ) ;
#283 = LINE ( 'NONE', #50, #30 ) ;
#284 = PRESENTATION_LAYER_ASSIGNMENT (  '', '', ( #194 ) ) ;
#285 = PRESENTATION_STYLE_ASSIGNMENT (( #289 ) ) ;
#286 = ORIENTED_EDGE ( 'NONE', *, *, #149, .F. ) ;
#287 = PLANE ( 'NONE',  #18 ) ;
#288 = VECTOR ( 'NONE', #237, 1000.000000000000000 ) ;
#289 = SURFACE_STYLE_USAGE ( .BOTH. , #1 ) ;
#290 = PRESENTATION_LAYER_ASSIGNMENT (  '', '', ( #177 ) ) ;
#291 = VECTOR ( 'NONE', #205, 1000.000000000000000 ) ;
#292 = DIRECTION ( 'NONE',  ( -1.110223024625156500E-016, 1.000000000000000000, 0.0000000000000000000 ) ) ;
ENDSEC;
END-ISO-10303-21;
