ISO-10303-21;
HEADER;
FILE_DESCRIPTION (( 'STEP AP214' ),
    '1' );
FILE_NAME ('6290178.stp',
    '2016-06-29T06:47:38',
    ( '' ),
    ( '' ),
    'SwSTEP 2.0',
    'SolidWorks 2014',
    '' );
FILE_SCHEMA (( 'AUTOMOTIVE_DESIGN' ));
ENDSEC;

DATA;
#1 = DIRECTION ( 'NONE',  ( -1.000000000000000000, -1.416395786990122700E-016, 0.0000000000000000000 ) ) ;
#2 = DIRECTION ( 'NONE',  ( -1.416395786990122700E-016, 1.000000000000000000, 0.0000000000000000000 ) ) ;
#3 = CARTESIAN_POINT ( 'NONE',  ( 35.00000000000000000, 4.286263797015736500E-015, 4.000000000000000000 ) ) ;
#4 = CARTESIAN_POINT ( 'NONE',  ( -24.49489742783178400, -24.99999999999999600, 4.000000000000000000 ) ) ;
#5 = EDGE_LOOP ( 'NONE', ( #147, #123, #150, #179 ) ) ;
#6 = ADVANCED_BREP_SHAPE_REPRESENTATION ( '6290178', ( #63, #173 ), #185 ) ;
#7 = PLANE ( 'NONE',  #183 ) ;
#8 = DIRECTION ( 'NONE',  ( 0.0000000000000000000, 0.0000000000000000000, 1.000000000000000000 ) ) ;
#9 = DIRECTION ( 'NONE',  ( -0.0000000000000000000, -0.0000000000000000000, -1.000000000000000000 ) ) ;
#10 = CARTESIAN_POINT ( 'NONE',  ( 35.00000000000000000, 4.286263797015736500E-015, 4.000000000000000000 ) ) ;
#11 = CARTESIAN_POINT ( 'NONE',  ( 24.49489742783179800, -24.99999999999998900, 4.000000000000000000 ) ) ;
#12 = CARTESIAN_POINT ( 'NONE',  ( 0.0000000000000000000, 0.0000000000000000000, 4.000000000000000000 ) ) ;
#13 = CARTESIAN_POINT ( 'NONE',  ( 35.00000000000000000, 4.286263797015736500E-015, 0.0000000000000000000 ) ) ;
#14 = CARTESIAN_POINT ( 'NONE',  ( -35.00000000000000000, 0.0000000000000000000, 4.000000000000000000 ) ) ;
#15 = CARTESIAN_POINT ( 'NONE',  ( 24.49489742783179800, -24.99999999999998900, 0.0000000000000000000 ) ) ;
#16 = DIRECTION ( 'NONE',  ( 0.0000000000000000000, 0.0000000000000000000, 1.000000000000000000 ) ) ;
#17 = UNCERTAINTY_MEASURE_WITH_UNIT (LENGTH_MEASURE( 1.000000000000000100E-005 ), #152, 'distance_accuracy_value', 'NONE');
#18 = EDGE_CURVE ( 'NONE', #131, #121, #113, .T. ) ;
#19 = DIRECTION ( 'NONE',  ( 1.000000000000000000, 0.0000000000000000000, 0.0000000000000000000 ) ) ;
#20 = PRODUCT_DEFINITION_SHAPE ( 'NONE', 'NONE',  #172 ) ;
#21 = DIRECTION ( 'NONE',  ( 1.000000000000000000, 0.0000000000000000000, -0.0000000000000000000 ) ) ;
#22 = CARTESIAN_POINT ( 'NONE',  ( 0.0000000000000000000, 0.0000000000000000000, 0.0000000000000000000 ) ) ;
#23 = EDGE_CURVE ( 'NONE', #163, #117, #96, .T. ) ;
#24 = CARTESIAN_POINT ( 'NONE',  ( -35.00000000000000000, 0.0000000000000000000, 0.0000000000000000000 ) ) ;
#25 = EDGE_CURVE ( 'NONE', #125, #133, #114, .T. ) ;
#26 = CARTESIAN_POINT ( 'NONE',  ( -24.49489742783178400, -24.99999999999999600, 4.000000000000000000 ) ) ;
#27 = PLANE ( 'NONE',  #187 ) ;
#28 =( NAMED_UNIT ( * ) PLANE_ANGLE_UNIT ( ) SI_UNIT ( $, .RADIAN. ) );
#29 = CARTESIAN_POINT ( 'NONE',  ( 0.0000000000000000000, 0.0000000000000000000, 0.0000000000000000000 ) ) ;
#30 =( NAMED_UNIT ( * ) SI_UNIT ( $, .STERADIAN. ) SOLID_ANGLE_UNIT ( ) );
#31 =( LENGTH_UNIT ( ) NAMED_UNIT ( * ) SI_UNIT ( .MILLI., .METRE. ) );
#32 = SURFACE_STYLE_USAGE ( .BOTH. , #33 ) ;
#33 = SURFACE_SIDE_STYLE ('',( #92 ) ) ;
#34 = FILL_AREA_STYLE ('',( #36 ) ) ;
#35 = CARTESIAN_POINT ( 'NONE',  ( 0.0000000000000000000, 0.0000000000000000000, 4.000000000000000000 ) ) ;
#36 = FILL_AREA_STYLE_COLOUR ( '', #105 ) ;
#37 = DIRECTION ( 'NONE',  ( 1.000000000000000000, 0.0000000000000000000, 0.0000000000000000000 ) ) ;
#38 = DIRECTION ( 'NONE',  ( 0.0000000000000000000, 0.0000000000000000000, 1.000000000000000000 ) ) ;
#39 = CARTESIAN_POINT ( 'NONE',  ( 0.0000000000000000000, 0.0000000000000000000, 4.000000000000000000 ) ) ;
#40 = ORIENTED_EDGE ( 'NONE', *, *, #207, .T. ) ;
#41 = PRODUCT_DEFINITION_CONTEXT ( 'detailed design', #89, 'design' ) ;
#42 = DIRECTION ( 'NONE',  ( 1.000000000000000000, 0.0000000000000000000, 0.0000000000000000000 ) ) ;
#43 = DIRECTION ( 'NONE',  ( 0.0000000000000000000, 0.0000000000000000000, 1.000000000000000000 ) ) ;
#44 = CARTESIAN_POINT ( 'NONE',  ( 0.0000000000000000000, 0.0000000000000000000, 0.0000000000000000000 ) ) ;
#45 = ADVANCED_FACE ( 'NONE', ( #108 ), #71, .T. ) ;
#46 = DIRECTION ( 'NONE',  ( -1.000000000000000000, 0.0000000000000000000, 0.0000000000000000000 ) ) ;
#47 = EDGE_CURVE ( 'NONE', #117, #118, #106, .T. ) ;
#48 = DIRECTION ( 'NONE',  ( -0.0000000000000000000, -0.0000000000000000000, -1.000000000000000000 ) ) ;
#49 = DIRECTION ( 'NONE',  ( -1.000000000000000000, 0.0000000000000000000, 0.0000000000000000000 ) ) ;
#50 = EDGE_CURVE ( 'NONE', #148, #125, #107, .T. ) ;
#51 = DIRECTION ( 'NONE',  ( -0.0000000000000000000, -0.0000000000000000000, -1.000000000000000000 ) ) ;
#52 = DIRECTION ( 'NONE',  ( 0.0000000000000000000, 0.0000000000000000000, 1.000000000000000000 ) ) ;
#53 = DIRECTION ( 'NONE',  ( 1.000000000000000000, 0.0000000000000000000, 0.0000000000000000000 ) ) ;
#54 = CARTESIAN_POINT ( 'NONE',  ( 0.0000000000000000000, 0.0000000000000000000, 0.0000000000000000000 ) ) ;
#55 = CARTESIAN_POINT ( 'NONE',  ( -24.49489742783178400, -24.99999999999999600, 4.000000000000000000 ) ) ;
#56 = CARTESIAN_POINT ( 'NONE',  ( 0.0000000000000000000, 0.0000000000000000000, 4.000000000000000000 ) ) ;
#57 = ADVANCED_FACE ( 'NONE', ( #137 ), #99, .T. ) ;
#58 = DIRECTION ( 'NONE',  ( 1.000000000000000000, 1.416395786990122700E-016, 0.0000000000000000000 ) ) ;
#59 = EDGE_CURVE ( 'NONE', #121, #163, #100, .T. ) ;
#60 = EDGE_CURVE ( 'NONE', #133, #131, #103, .T. ) ;
#61 = DIRECTION ( 'NONE',  ( 1.000000000000000000, 0.0000000000000000000, -0.0000000000000000000 ) ) ;
#62 = ADVANCED_FACE ( 'NONE', ( #111 ), #93, .T. ) ;
#63 = MANIFOLD_SOLID_BREP ( 'Linear austragen1', #95 ) ;
#64 = DIRECTION ( 'NONE',  ( 0.0000000000000000000, 0.0000000000000000000, 1.000000000000000000 ) ) ;
#65 = DIRECTION ( 'NONE',  ( 0.0000000000000000000, 0.0000000000000000000, 1.000000000000000000 ) ) ;
#66 = CARTESIAN_POINT ( 'NONE',  ( 0.0000000000000000000, 0.0000000000000000000, 4.000000000000000000 ) ) ;
#67 = CARTESIAN_POINT ( 'NONE',  ( 0.0000000000000000000, 0.0000000000000000000, 4.000000000000000000 ) ) ;
#68 = CARTESIAN_POINT ( 'NONE',  ( -24.49489742783178400, -24.99999999999999600, 0.0000000000000000000 ) ) ;
#69 = DIRECTION ( 'NONE',  ( 1.000000000000000000, 0.0000000000000000000, 0.0000000000000000000 ) ) ;
#70 = DIRECTION ( 'NONE',  ( 1.000000000000000000, 1.416395786990122700E-016, 0.0000000000000000000 ) ) ;
#71 = PLANE ( 'NONE',  #202 ) ;
#72 = EDGE_CURVE ( 'NONE', #118, #121, #98, .T. ) ;
#73 = ADVANCED_FACE ( 'NONE', ( #94 ), #27, .F. ) ;
#74 = CARTESIAN_POINT ( 'NONE',  ( -35.00000000000000000, 0.0000000000000000000, 4.000000000000000000 ) ) ;
#75 = SHAPE_DEFINITION_REPRESENTATION ( #20, #6 ) ;
#76 = PRESENTATION_STYLE_ASSIGNMENT (( #153 ) ) ;
#77 = COLOUR_RGB ( '',1.000000000000000000, 1.000000000000000000, 1.000000000000000000 ) ;
#78 = SURFACE_STYLE_FILL_AREA ( #155 ) ;
#79 = CYLINDRICAL_SURFACE ( 'NONE', #180, 35.00000000000000000 ) ;
#80 = LINE ( 'NONE', #186, #101 ) ;
#81 = FACE_OUTER_BOUND ( 'NONE', #204, .T. ) ;
#82 = CIRCLE ( 'NONE', #181, 35.00000000000000000 ) ;
#83 = FACE_OUTER_BOUND ( 'NONE', #132, .T. ) ;
#84 = VECTOR ( 'NONE', #192, 1000.000000000000000 ) ;
#85 = VECTOR ( 'NONE', #9, 1000.000000000000000 ) ;
#86 = LINE ( 'NONE', #26, #85 ) ;
#87 = LINE ( 'NONE', #3, #84 ) ;
#88 = APPLICATION_PROTOCOL_DEFINITION ( 'draft international standard', 'automotive_design', 1998, #89 ) ;
#89 = APPLICATION_CONTEXT ( 'automotive_design' ) ;
#90 = PRESENTATION_STYLE_ASSIGNMENT (( #32 ) ) ;
#91 = PRODUCT_CONTEXT ( 'NONE', #156, 'mechanical' ) ;
#92 = SURFACE_STYLE_FILL_AREA ( #34 ) ;
#93 = CYLINDRICAL_SURFACE ( 'NONE', #196, 35.00000000000000000 ) ;
#94 = FACE_OUTER_BOUND ( 'NONE', #141, .T. ) ;
#95 = CLOSED_SHELL ( 'NONE', ( #160, #62, #57, #140, #45, #73 ) ) ;
#96 = LINE ( 'NONE', #68, #109 ) ;
#97 = ORIENTED_EDGE ( 'NONE', *, *, #59, .F. ) ;
#98 = CIRCLE ( 'NONE', #197, 35.00000000000000000 ) ;
#99 = CYLINDRICAL_SURFACE ( 'NONE', #198, 35.00000000000000000 ) ;
#100 = CIRCLE ( 'NONE', #199, 35.00000000000000000 ) ;
#101 = VECTOR ( 'NONE', #178, 1000.000000000000000 ) ;
#102 = ORIENTED_EDGE ( 'NONE', *, *, #208, .F. ) ;
#103 = CIRCLE ( 'NONE', #201, 35.00000000000000000 ) ;
#104 = VECTOR ( 'NONE', #58, 1000.000000000000000 ) ;
#105 = COLOUR_RGB ( '',1.000000000000000000, 1.000000000000000000, 1.000000000000000000 ) ;
#106 = CIRCLE ( 'NONE', #203, 35.00000000000000000 ) ;
#107 = LINE ( 'NONE', #55, #104 ) ;
#108 = FACE_OUTER_BOUND ( 'NONE', #5, .T. ) ;
#109 = VECTOR ( 'NONE', #70, 1000.000000000000000 ) ;
#110 = DIRECTION ( 'NONE',  ( 1.000000000000000000, 0.0000000000000000000, 0.0000000000000000000 ) ) ;
#111 = FACE_OUTER_BOUND ( 'NONE', #119, .T. ) ;
#112 = VECTOR ( 'NONE', #122, 1000.000000000000000 ) ;
#113 = LINE ( 'NONE', #74, #112 ) ;
#114 = CIRCLE ( 'NONE', #205, 35.00000000000000000 ) ;
#115 = ORIENTED_EDGE ( 'NONE', *, *, #139, .T. ) ;
#116 = ORIENTED_EDGE ( 'NONE', *, *, #72, .T. ) ;
#117 = VERTEX_POINT ( 'NONE', #15 ) ;
#118 = VERTEX_POINT ( 'NONE', #13 ) ;
#119 = EDGE_LOOP ( 'NONE', ( #102, #129, #146, #128 ) ) ;
#120 = ORIENTED_EDGE ( 'NONE', *, *, #18, .F. ) ;
#121 = VERTEX_POINT ( 'NONE', #24 ) ;
#122 = DIRECTION ( 'NONE',  ( -0.0000000000000000000, -0.0000000000000000000, -1.000000000000000000 ) ) ;
#123 = ORIENTED_EDGE ( 'NONE', *, *, #60, .T. ) ;
#124 = ORIENTED_EDGE ( 'NONE', *, *, #23, .F. ) ;
#125 = VERTEX_POINT ( 'NONE', #11 ) ;
#126 = DIRECTION ( 'NONE',  ( 0.0000000000000000000, 0.0000000000000000000, 1.000000000000000000 ) ) ;
#127 = ORIENTED_EDGE ( 'NONE', *, *, #151, .F. ) ;
#128 = ORIENTED_EDGE ( 'NONE', *, *, #139, .F. ) ;
#129 = ORIENTED_EDGE ( 'NONE', *, *, #18, .T. ) ;
#130 = ORIENTED_EDGE ( 'NONE', *, *, #50, .F. ) ;
#131 = VERTEX_POINT ( 'NONE', #14 ) ;
#132 = EDGE_LOOP ( 'NONE', ( #144, #136, #130, #115 ) ) ;
#133 = VERTEX_POINT ( 'NONE', #10 ) ;
#134 = ORIENTED_EDGE ( 'NONE', *, *, #72, .F. ) ;
#135 = ORIENTED_EDGE ( 'NONE', *, *, #151, .T. ) ;
#136 = ORIENTED_EDGE ( 'NONE', *, *, #207, .F. ) ;
#137 = FACE_OUTER_BOUND ( 'NONE', #161, .T. ) ;
#138 =( NAMED_UNIT ( * ) SI_UNIT ( $, .STERADIAN. ) SOLID_ANGLE_UNIT ( ) );
#139 = EDGE_CURVE ( 'NONE', #148, #163, #86, .T. ) ;
#140 = ADVANCED_FACE ( 'NONE', ( #83 ), #7, .F. ) ;
#141 = EDGE_LOOP ( 'NONE', ( #206, #124, #97, #134 ) ) ;
#142 = ORIENTED_EDGE ( 'NONE', *, *, #60, .F. ) ;
#143 = ORIENTED_EDGE ( 'NONE', *, *, #47, .T. ) ;
#144 = ORIENTED_EDGE ( 'NONE', *, *, #23, .T. ) ;
#145 =( NAMED_UNIT ( * ) PLANE_ANGLE_UNIT ( ) SI_UNIT ( $, .RADIAN. ) );
#146 = ORIENTED_EDGE ( 'NONE', *, *, #59, .T. ) ;
#147 = ORIENTED_EDGE ( 'NONE', *, *, #25, .T. ) ;
#148 = VERTEX_POINT ( 'NONE', #200 ) ;
#149 = ORIENTED_EDGE ( 'NONE', *, *, #25, .F. ) ;
#150 = ORIENTED_EDGE ( 'NONE', *, *, #208, .T. ) ;
#151 = EDGE_CURVE ( 'NONE', #133, #118, #87, .T. ) ;
#152 =( LENGTH_UNIT ( ) NAMED_UNIT ( * ) SI_UNIT ( .MILLI., .METRE. ) );
#153 = SURFACE_STYLE_USAGE ( .BOTH. , #154 ) ;
#154 = SURFACE_SIDE_STYLE ('',( #78 ) ) ;
#155 = FILL_AREA_STYLE ('',( #184 ) ) ;
#156 = APPLICATION_CONTEXT ( 'automotive_design' ) ;
#157 = UNCERTAINTY_MEASURE_WITH_UNIT (LENGTH_MEASURE( 1.000000000000000100E-005 ), #31, 'distance_accuracy_value', 'NONE');
#158 = APPLICATION_PROTOCOL_DEFINITION ( 'draft international standard', 'automotive_design', 1998, #156 ) ;
#159 = PRODUCT ( '6290178', '6290178', '', ( #91 ) ) ;
#160 = ADVANCED_FACE ( 'NONE', ( #81 ), #79, .T. ) ;
#161 = EDGE_LOOP ( 'NONE', ( #127, #149, #40, #143 ) ) ;
#162 =( NAMED_UNIT ( * ) SI_UNIT ( $, .STERADIAN. ) SOLID_ANGLE_UNIT ( ) );
#163 = VERTEX_POINT ( 'NONE', #188 ) ;
#164 = UNCERTAINTY_MEASURE_WITH_UNIT (LENGTH_MEASURE( 1.000000000000000100E-005 ), #166, 'distance_accuracy_value', 'NONE');
#165 =( NAMED_UNIT ( * ) PLANE_ANGLE_UNIT ( ) SI_UNIT ( $, .RADIAN. ) );
#166 =( LENGTH_UNIT ( ) NAMED_UNIT ( * ) SI_UNIT ( .MILLI., .METRE. ) );
#167 = DIRECTION ( 'NONE',  ( 1.000000000000000000, 0.0000000000000000000, 0.0000000000000000000 ) ) ;
#168 = DIRECTION ( 'NONE',  ( 0.0000000000000000000, 0.0000000000000000000, 1.000000000000000000 ) ) ;
#169 = PRODUCT_RELATED_PRODUCT_CATEGORY ( 'part', '', ( #159 ) ) ;
#170 = PRODUCT_DEFINITION_FORMATION_WITH_SPECIFIED_SOURCE ( 'ANY', '', #159, .NOT_KNOWN. ) ;
#171 = CARTESIAN_POINT ( 'NONE',  ( 0.0000000000000000000, 0.0000000000000000000, 4.000000000000000000 ) ) ;
#172 = PRODUCT_DEFINITION ( 'UNKNOWN', '', #170, #41 ) ;
#173 = AXIS2_PLACEMENT_3D ( 'NONE', #182, #126, #110 ) ;
#174 =( GEOMETRIC_REPRESENTATION_CONTEXT ( 3 ) GLOBAL_UNCERTAINTY_ASSIGNED_CONTEXT ( ( #17 ) ) GLOBAL_UNIT_ASSIGNED_CONTEXT ( ( #152, #145, #138 ) ) REPRESENTATION_CONTEXT ( 'NONE', 'WORKASPACE' ) );
#175 = MECHANICAL_DESIGN_GEOMETRIC_PRESENTATION_REPRESENTATION (  '', ( #177 ), #174 ) ;
#176 = PRESENTATION_LAYER_ASSIGNMENT (  '', '', ( #177 ) ) ;
#177 = STYLED_ITEM ( 'NONE', ( #76 ), #6 ) ;
#178 = DIRECTION ( 'NONE',  ( -0.0000000000000000000, -0.0000000000000000000, -1.000000000000000000 ) ) ;
#179 = ORIENTED_EDGE ( 'NONE', *, *, #50, .T. ) ;
#180 = AXIS2_PLACEMENT_3D ( 'NONE', #12, #194, #191 ) ;
#181 = AXIS2_PLACEMENT_3D ( 'NONE', #171, #168, #167 ) ;
#182 = CARTESIAN_POINT ( 'NONE',  ( 0.0000000000000000000, 0.0000000000000000000, 0.0000000000000000000 ) ) ;
#183 = AXIS2_PLACEMENT_3D ( 'NONE', #4, #2, #1 ) ;
#184 = FILL_AREA_STYLE_COLOUR ( '', #77 ) ;
#185 =( GEOMETRIC_REPRESENTATION_CONTEXT ( 3 ) GLOBAL_UNCERTAINTY_ASSIGNED_CONTEXT ( ( #164 ) ) GLOBAL_UNIT_ASSIGNED_CONTEXT ( ( #166, #165, #162 ) ) REPRESENTATION_CONTEXT ( 'NONE', 'WORKASPACE' ) );
#186 = CARTESIAN_POINT ( 'NONE',  ( 24.49489742783179800, -24.99999999999998900, 4.000000000000000000 ) ) ;
#187 = AXIS2_PLACEMENT_3D ( 'NONE', #29, #16, #21 ) ;
#188 = CARTESIAN_POINT ( 'NONE',  ( -24.49489742783178400, -24.99999999999999600, 0.0000000000000000000 ) ) ;
#189 =( GEOMETRIC_REPRESENTATION_CONTEXT ( 3 ) GLOBAL_UNCERTAINTY_ASSIGNED_CONTEXT ( ( #157 ) ) GLOBAL_UNIT_ASSIGNED_CONTEXT ( ( #31, #28, #30 ) ) REPRESENTATION_CONTEXT ( 'NONE', 'WORKASPACE' ) );
#190 = MECHANICAL_DESIGN_GEOMETRIC_PRESENTATION_REPRESENTATION (  '', ( #195 ), #189 ) ;
#191 = DIRECTION ( 'NONE',  ( -1.000000000000000000, 0.0000000000000000000, 0.0000000000000000000 ) ) ;
#192 = DIRECTION ( 'NONE',  ( -0.0000000000000000000, -0.0000000000000000000, -1.000000000000000000 ) ) ;
#193 = PRESENTATION_LAYER_ASSIGNMENT (  '', '', ( #195 ) ) ;
#194 = DIRECTION ( 'NONE',  ( -0.0000000000000000000, -0.0000000000000000000, -1.000000000000000000 ) ) ;
#195 = STYLED_ITEM ( 'NONE', ( #90 ), #63 ) ;
#196 = AXIS2_PLACEMENT_3D ( 'NONE', #35, #48, #46 ) ;
#197 = AXIS2_PLACEMENT_3D ( 'NONE', #22, #8, #19 ) ;
#198 = AXIS2_PLACEMENT_3D ( 'NONE', #56, #51, #49 ) ;
#199 = AXIS2_PLACEMENT_3D ( 'NONE', #44, #43, #42 ) ;
#200 = CARTESIAN_POINT ( 'NONE',  ( -24.49489742783178400, -24.99999999999999600, 4.000000000000000000 ) ) ;
#201 = AXIS2_PLACEMENT_3D ( 'NONE', #39, #38, #37 ) ;
#202 = AXIS2_PLACEMENT_3D ( 'NONE', #67, #64, #61 ) ;
#203 = AXIS2_PLACEMENT_3D ( 'NONE', #54, #52, #53 ) ;
#204 = EDGE_LOOP ( 'NONE', ( #142, #135, #116, #120 ) ) ;
#205 = AXIS2_PLACEMENT_3D ( 'NONE', #66, #65, #69 ) ;
#206 = ORIENTED_EDGE ( 'NONE', *, *, #47, .F. ) ;
#207 = EDGE_CURVE ( 'NONE', #125, #117, #80, .T. ) ;
#208 = EDGE_CURVE ( 'NONE', #131, #148, #82, .T. ) ;
ENDSEC;
END-ISO-10303-21;
