ISO-10303-21;
HEADER;
FILE_DESCRIPTION (( 'STEP AP214' ),
    '1' );
FILE_NAME ('6290170.stp',
    '2016-06-28T12:44:10',
    ( '' ),
    ( '' ),
    'SwSTEP 2.0',
    'SolidWorks 2014',
    '' );
FILE_SCHEMA (( 'AUTOMOTIVE_DESIGN' ));
ENDSEC;

DATA;
#1 =( NAMED_UNIT ( * ) SI_UNIT ( $, .STERADIAN. ) SOLID_ANGLE_UNIT ( ) );
#2 =( NAMED_UNIT ( * ) PLANE_ANGLE_UNIT ( ) SI_UNIT ( $, .RADIAN. ) );
#3 =( LENGTH_UNIT ( ) NAMED_UNIT ( * ) SI_UNIT ( .MILLI., .METRE. ) );
#4 = SURFACE_STYLE_USAGE ( .BOTH. , #5 ) ;
#5 = SURFACE_SIDE_STYLE ('',( #57 ) ) ;
#6 = DIRECTION ( 'NONE',  ( 0.0000000000000000000, 0.0000000000000000000, 1.000000000000000000 ) ) ;
#7 = DIRECTION ( 'NONE',  ( 0.0000000000000000000, 1.000000000000000000, 0.0000000000000000000 ) ) ;
#8 = CARTESIAN_POINT ( 'NONE',  ( 52.00000000000000700, 4.000000000000000000, 32.00000000000000000 ) ) ;
#9 = FILL_AREA_STYLE_COLOUR ( '', #29 ) ;
#10 = VECTOR ( 'NONE', #17, 1000.000000000000000 ) ;
#11 = FILL_AREA_STYLE ('',( #9 ) ) ;
#12 = DIRECTION ( 'NONE',  ( 1.000000000000000000, 0.0000000000000000000, 0.0000000000000000000 ) ) ;
#13 = CARTESIAN_POINT ( 'NONE',  ( -55.00000000000000000, 4.000000000000000000, 35.00000000000000000 ) ) ;
#14 = DIRECTION ( 'NONE',  ( -0.0000000000000000000, 1.000000000000000000, -0.0000000000000000000 ) ) ;
#15 = VECTOR ( 'NONE', #25, 1000.000000000000000 ) ;
#16 = CARTESIAN_POINT ( 'NONE',  ( 52.00000000000001400, 4.000000000000000000, 35.00000000000000000 ) ) ;
#17 = DIRECTION ( 'NONE',  ( 1.000000000000000000, 0.0000000000000000000, 0.0000000000000000000 ) ) ;
#18 = CARTESIAN_POINT ( 'NONE',  ( -55.00000000000000000, 0.0000000000000000000, 35.00000000000000000 ) ) ;
#19 = VECTOR ( 'NONE', #14, 1000.000000000000000 ) ;
#20 = VECTOR ( 'NONE', #87, 1000.000000000000000 ) ;
#21 = LINE ( 'NONE', #72, #20 ) ;
#22 = DIRECTION ( 'NONE',  ( -0.0000000000000000000, 1.000000000000000000, -0.0000000000000000000 ) ) ;
#23 = LINE ( 'NONE', #65, #15 ) ;
#24 = CARTESIAN_POINT ( 'NONE',  ( -55.00000000000000000, 4.000000000000000000, 32.00000000000000000 ) ) ;
#25 = DIRECTION ( 'NONE',  ( 9.912705577010325500E-017, 0.0000000000000000000, 1.000000000000000000 ) ) ;
#26 = DIRECTION ( 'NONE',  ( 0.0000000000000000000, -1.000000000000000000, 0.0000000000000000000 ) ) ;
#27 = VECTOR ( 'NONE', #26, 1000.000000000000000 ) ;
#28 = LINE ( 'NONE', #24, #68 ) ;
#29 = COLOUR_RGB ( '',0.7529411764705882200, 0.7529411764705882200, 0.7529411764705882200 ) ;
#30 = CARTESIAN_POINT ( 'NONE',  ( -55.00000000000000700, 4.000000000000000000, -32.00000000000000000 ) ) ;
#31 = LINE ( 'NONE', #35, #342 ) ;
#32 = LINE ( 'NONE', #38, #70 ) ;
#33 = APPLICATION_CONTEXT ( 'automotive_design' ) ;
#34 = DIRECTION ( 'NONE',  ( 9.912705577010325500E-017, 0.0000000000000000000, 1.000000000000000000 ) ) ;
#35 = CARTESIAN_POINT ( 'NONE',  ( -55.00000000000000700, 4.000000000000000000, -35.00000000000000000 ) ) ;
#36 = DIRECTION ( 'NONE',  ( -0.0000000000000000000, 1.000000000000000000, -0.0000000000000000000 ) ) ;
#37 = UNCERTAINTY_MEASURE_WITH_UNIT (LENGTH_MEASURE( 1.000000000000000100E-005 ), #3, 'distance_accuracy_value', 'NONE');
#38 = CARTESIAN_POINT ( 'NONE',  ( -52.00000000000000700, 4.000000000000000000, -35.00000000000000000 ) ) ;
#39 = VECTOR ( 'NONE', #40, 1000.000000000000000 ) ;
#40 = DIRECTION ( 'NONE',  ( -1.000000000000000000, -0.0000000000000000000, -0.0000000000000000000 ) ) ;
#41 = CARTESIAN_POINT ( 'NONE',  ( -55.00000000000000700, 0.0000000000000000000, -35.00000000000000000 ) ) ;
#42 = DIRECTION ( 'NONE',  ( -1.000000000000000000, -0.0000000000000000000, -0.0000000000000000000 ) ) ;
#43 = PRODUCT_CONTEXT ( 'NONE', #73, 'mechanical' ) ;
#44 = SHAPE_DEFINITION_REPRESENTATION ( #299, #225 ) ;
#45 = CARTESIAN_POINT ( 'NONE',  ( -55.00000000000000700, 4.000000000000000000, -35.00000000000000000 ) ) ;
#46 = DIRECTION ( 'NONE',  ( -1.982541115402065100E-016, -0.0000000000000000000, -1.000000000000000000 ) ) ;
#47 = PRESENTATION_STYLE_ASSIGNMENT (( #119 ) ) ;
#48 = COLOUR_RGB ( '',0.7529411764705882200, 0.7529411764705882200, 0.7529411764705882200 ) ;
#49 = DIRECTION ( 'NONE',  ( 1.000000000000000000, 0.0000000000000000000, 0.0000000000000000000 ) ) ;
#50 = SURFACE_STYLE_FILL_AREA ( #217 ) ;
#51 = CARTESIAN_POINT ( 'NONE',  ( 54.99999999999999300, 0.0000000000000000000, -35.00000000000000000 ) ) ;
#52 = CIRCLE ( 'NONE', #274, 3.000000000000002700 ) ;
#53 = CIRCLE ( 'NONE', #275, 3.000000000000002700 ) ;
#54 = CIRCLE ( 'NONE', #280, 2.999999999999999100 ) ;
#55 = DIRECTION ( 'NONE',  ( 0.0000000000000000000, -1.000000000000000000, 0.0000000000000000000 ) ) ;
#56 = PRESENTATION_STYLE_ASSIGNMENT (( #4 ) ) ;
#57 = SURFACE_STYLE_FILL_AREA ( #11 ) ;
#58 = DIRECTION ( 'NONE',  ( 0.0000000000000000000, 0.0000000000000000000, 1.000000000000000000 ) ) ;
#59 = DIRECTION ( 'NONE',  ( -0.0000000000000000000, -1.000000000000000000, -0.0000000000000000000 ) ) ;
#60 = CIRCLE ( 'NONE', #278, 2.999999999999999100 ) ;
#61 = VECTOR ( 'NONE', #12, 1000.000000000000000 ) ;
#62 = CIRCLE ( 'NONE', #288, 3.000000000000002700 ) ;
#63 = CARTESIAN_POINT ( 'NONE',  ( 52.00000000000000700, 0.0000000000000000000, 32.00000000000000000 ) ) ;
#64 = CARTESIAN_POINT ( 'NONE',  ( 55.00000000000000700, 4.000000000000000000, 32.00000000000000000 ) ) ;
#65 = CARTESIAN_POINT ( 'NONE',  ( -55.00000000000000700, 0.0000000000000000000, -35.00000000000000000 ) ) ;
#66 = APPLICATION_PROTOCOL_DEFINITION ( 'draft international standard', 'automotive_design', 1998, #33 ) ;
#67 = LINE ( 'NONE', #16, #19 ) ;
#68 = VECTOR ( 'NONE', #22, 1000.000000000000000 ) ;
#69 = LINE ( 'NONE', #18, #10 ) ;
#70 = VECTOR ( 'NONE', #36, 1000.000000000000000 ) ;
#71 = VECTOR ( 'NONE', #42, 1000.000000000000000 ) ;
#72 = CARTESIAN_POINT ( 'NONE',  ( 54.99999999999999300, 4.000000000000000000, -35.00000000000000000 ) ) ;
#73 = APPLICATION_CONTEXT ( 'automotive_design' ) ;
#74 = LINE ( 'NONE', #41, #39 ) ;
#75 = DIRECTION ( 'NONE',  ( 0.0000000000000000000, -1.000000000000000000, 0.0000000000000000000 ) ) ;
#76 = VECTOR ( 'NONE', #46, 1000.000000000000000 ) ;
#77 = LINE ( 'NONE', #45, #71 ) ;
#78 = VECTOR ( 'NONE', #55, 1000.000000000000000 ) ;
#79 = LINE ( 'NONE', #51, #76 ) ;
#80 = VECTOR ( 'NONE', #75, 1000.000000000000000 ) ;
#81 = LINE ( 'NONE', #64, #78 ) ;
#82 = LINE ( 'NONE', #13, #61 ) ;
#83 = VECTOR ( 'NONE', #92, 1000.000000000000000 ) ;
#84 = CIRCLE ( 'NONE', #290, 3.000000000000002700 ) ;
#85 = VECTOR ( 'NONE', #120, 1000.000000000000000 ) ;
#86 = CIRCLE ( 'NONE', #292, 2.999999999999999100 ) ;
#87 = DIRECTION ( 'NONE',  ( -1.982541115402065100E-016, -0.0000000000000000000, -1.000000000000000000 ) ) ;
#88 = CYLINDRICAL_SURFACE ( 'NONE', #291, 2.999999999999999100 ) ;
#89 = LINE ( 'NONE', #108, #80 ) ;
#90 = LINE ( 'NONE', #106, #83 ) ;
#91 = FACE_OUTER_BOUND ( 'NONE', #177, .T. ) ;
#92 = DIRECTION ( 'NONE',  ( 0.0000000000000000000, -1.000000000000000000, 0.0000000000000000000 ) ) ;
#93 = CYLINDRICAL_SURFACE ( 'NONE', #301, 3.000000000000002700 ) ;
#94 = LINE ( 'NONE', #142, #85 ) ;
#95 = DIRECTION ( 'NONE',  ( 0.0000000000000000000, 0.0000000000000000000, 1.000000000000000000 ) ) ;
#96 = FACE_OUTER_BOUND ( 'NONE', #189, .T. ) ;
#97 = FACE_OUTER_BOUND ( 'NONE', #152, .T. ) ;
#98 = DIRECTION ( 'NONE',  ( -0.0000000000000000000, -1.000000000000000000, -0.0000000000000000000 ) ) ;
#99 = FACE_OUTER_BOUND ( 'NONE', #187, .T. ) ;
#100 = FACE_OUTER_BOUND ( 'NONE', #235, .T. ) ;
#101 = CYLINDRICAL_SURFACE ( 'NONE', #309, 2.999999999999999100 ) ;
#102 = CARTESIAN_POINT ( 'NONE',  ( 51.99999999999999300, 0.0000000000000000000, -32.00000000000000000 ) ) ;
#103 = CIRCLE ( 'NONE', #294, 2.999999999999999100 ) ;
#104 = FACE_OUTER_BOUND ( 'NONE', #188, .T. ) ;
#105 = FACE_OUTER_BOUND ( 'NONE', #190, .T. ) ;
#106 = CARTESIAN_POINT ( 'NONE',  ( 51.99999999999999300, 4.000000000000000000, -35.00000000000000000 ) ) ;
#107 = CYLINDRICAL_SURFACE ( 'NONE', #311, 3.000000000000002700 ) ;
#108 = CARTESIAN_POINT ( 'NONE',  ( -52.00000000000000000, 4.000000000000000000, 35.00000000000000000 ) ) ;
#109 = DIRECTION ( 'NONE',  ( 0.0000000000000000000, 0.0000000000000000000, 1.000000000000000000 ) ) ;
#110 = FACE_OUTER_BOUND ( 'NONE', #147, .T. ) ;
#111 = DIRECTION ( 'NONE',  ( -0.0000000000000000000, -1.000000000000000000, -0.0000000000000000000 ) ) ;
#112 = FACE_OUTER_BOUND ( 'NONE', #211, .T. ) ;
#113 = CARTESIAN_POINT ( 'NONE',  ( -52.00000000000000700, 0.0000000000000000000, -32.00000000000000000 ) ) ;
#114 = ORIENTED_EDGE ( 'NONE', *, *, #324, .T. ) ;
#115 = ORIENTED_EDGE ( 'NONE', *, *, #314, .T. ) ;
#116 = ORIENTED_EDGE ( 'NONE', *, *, #325, .F. ) ;
#117 = ORIENTED_EDGE ( 'NONE', *, *, #315, .T. ) ;
#118 = ORIENTED_EDGE ( 'NONE', *, *, #326, .T. ) ;
#119 = SURFACE_STYLE_USAGE ( .BOTH. , #182 ) ;
#120 = DIRECTION ( 'NONE',  ( -0.0000000000000000000, 1.000000000000000000, -0.0000000000000000000 ) ) ;
#121 = ORIENTED_EDGE ( 'NONE', *, *, #327, .T. ) ;
#122 = ORIENTED_EDGE ( 'NONE', *, *, #329, .F. ) ;
#123 = ORIENTED_EDGE ( 'NONE', *, *, #330, .T. ) ;
#124 = VERTEX_POINT ( 'NONE', #276 ) ;
#125 = ORIENTED_EDGE ( 'NONE', *, *, #331, .T. ) ;
#126 = ORIENTED_EDGE ( 'NONE', *, *, #332, .T. ) ;
#127 = ORIENTED_EDGE ( 'NONE', *, *, #333, .T. ) ;
#128 = ORIENTED_EDGE ( 'NONE', *, *, #334, .T. ) ;
#129 =( NAMED_UNIT ( * ) SI_UNIT ( $, .STERADIAN. ) SOLID_ANGLE_UNIT ( ) );
#130 = VERTEX_POINT ( 'NONE', #271 ) ;
#131 = ORIENTED_EDGE ( 'NONE', *, *, #335, .F. ) ;
#132 = CARTESIAN_POINT ( 'NONE',  ( -55.00000000000000000, 4.000000000000000000, 32.00000000000000000 ) ) ;
#133 = ORIENTED_EDGE ( 'NONE', *, *, #316, .T. ) ;
#134 = ORIENTED_EDGE ( 'NONE', *, *, #335, .T. ) ;
#135 = ORIENTED_EDGE ( 'NONE', *, *, #336, .T. ) ;
#136 = CARTESIAN_POINT ( 'NONE',  ( 55.00000000000000700, 0.0000000000000000000, 32.00000000000000000 ) ) ;
#137 = VERTEX_POINT ( 'NONE', #260 ) ;
#138 = ORIENTED_EDGE ( 'NONE', *, *, #319, .T. ) ;
#139 = ORIENTED_EDGE ( 'NONE', *, *, #339, .T. ) ;
#140 = ORIENTED_EDGE ( 'NONE', *, *, #325, .T. ) ;
#141 = ORIENTED_EDGE ( 'NONE', *, *, #338, .T. ) ;
#142 = CARTESIAN_POINT ( 'NONE',  ( 54.99999999999999300, 4.000000000000000000, -32.00000000000000000 ) ) ;
#143 = CARTESIAN_POINT ( 'NONE',  ( -52.00000000000000000, 4.000000000000000000, 32.00000000000000000 ) ) ;
#144 = ORIENTED_EDGE ( 'NONE', *, *, #329, .T. ) ;
#145 = DIRECTION ( 'NONE',  ( -9.912705577010325500E-017, 0.0000000000000000000, -1.000000000000000000 ) ) ;
#146 = ORIENTED_EDGE ( 'NONE', *, *, #340, .T. ) ;
#147 = EDGE_LOOP ( 'NONE', ( #170, #171, #173, #174 ) ) ;
#148 = ORIENTED_EDGE ( 'NONE', *, *, #324, .F. ) ;
#149 = ORIENTED_EDGE ( 'NONE', *, *, #318, .T. ) ;
#150 = DIRECTION ( 'NONE',  ( 1.000000000000000000, 0.0000000000000000000, -9.912705577010325500E-017 ) ) ;
#151 = DIRECTION ( 'NONE',  ( 0.0000000000000000000, 0.0000000000000000000, -1.000000000000000000 ) ) ;
#152 = EDGE_LOOP ( 'NONE', ( #202, #201, #114, #115 ) ) ;
#153 = VERTEX_POINT ( 'NONE', #267 ) ;
#154 = ORIENTED_EDGE ( 'NONE', *, *, #333, .F. ) ;
#155 = ORIENTED_EDGE ( 'NONE', *, *, #341, .T. ) ;
#156 = ORIENTED_EDGE ( 'NONE', *, *, #331, .F. ) ;
#157 = DIRECTION ( 'NONE',  ( 0.0000000000000000000, -1.000000000000000000, 0.0000000000000000000 ) ) ;
#158 =( LENGTH_UNIT ( ) NAMED_UNIT ( * ) SI_UNIT ( .MILLI., .METRE. ) );
#159 = DIRECTION ( 'NONE',  ( 1.000000000000000000, 0.0000000000000000000, -0.0000000000000000000 ) ) ;
#160 = ORIENTED_EDGE ( 'NONE', *, *, #312, .T. ) ;
#161 = DIRECTION ( 'NONE',  ( 0.0000000000000000000, 0.0000000000000000000, 1.000000000000000000 ) ) ;
#162 = ORIENTED_EDGE ( 'NONE', *, *, #326, .F. ) ;
#163 = CARTESIAN_POINT ( 'NONE',  ( -55.00000000000000700, 4.000000000000000000, -35.00000000000000000 ) ) ;
#164 = ORIENTED_EDGE ( 'NONE', *, *, #313, .T. ) ;
#165 = PLANE ( 'NONE',  #298 ) ;
#166 = ORIENTED_EDGE ( 'NONE', *, *, #336, .F. ) ;
#167 = ORIENTED_EDGE ( 'NONE', *, *, #334, .F. ) ;
#168 = ORIENTED_EDGE ( 'NONE', *, *, #318, .F. ) ;
#169 = ORIENTED_EDGE ( 'NONE', *, *, #321, .F. ) ;
#170 = ORIENTED_EDGE ( 'NONE', *, *, #339, .F. ) ;
#171 = ORIENTED_EDGE ( 'NONE', *, *, #314, .F. ) ;
#172 = PLANE ( 'NONE',  #293 ) ;
#173 = ORIENTED_EDGE ( 'NONE', *, *, #313, .F. ) ;
#174 = ORIENTED_EDGE ( 'NONE', *, *, #315, .F. ) ;
#175 = ORIENTED_EDGE ( 'NONE', *, *, #338, .F. ) ;
#176 = ORIENTED_EDGE ( 'NONE', *, *, #327, .F. ) ;
#177 = EDGE_LOOP ( 'NONE', ( #186, #193, #194, #196 ) ) ;
#178 = CARTESIAN_POINT ( 'NONE',  ( -55.00000000000000700, 4.000000000000000000, -35.00000000000000000 ) ) ;
#179 =( NAMED_UNIT ( * ) PLANE_ANGLE_UNIT ( ) SI_UNIT ( $, .RADIAN. ) );
#180 = VERTEX_POINT ( 'NONE', #261 ) ;
#181 = CARTESIAN_POINT ( 'NONE',  ( -52.00000000000000700, 4.000000000000000000, -32.00000000000000000 ) ) ;
#182 = SURFACE_SIDE_STYLE ('',( #50 ) ) ;
#183 = ORIENTED_EDGE ( 'NONE', *, *, #312, .F. ) ;
#184 = ORIENTED_EDGE ( 'NONE', *, *, #330, .F. ) ;
#185 = DIRECTION ( 'NONE',  ( -1.000000000000000000, 0.0000000000000000000, -0.0000000000000000000 ) ) ;
#186 = ORIENTED_EDGE ( 'NONE', *, *, #340, .F. ) ;
#187 = EDGE_LOOP ( 'NONE', ( #127, #128, #131, #133 ) ) ;
#188 = EDGE_LOOP ( 'NONE', ( #148, #149, #154, #155, #156, #160, #162, #164 ) ) ;
#189 = EDGE_LOOP ( 'NONE', ( #122, #123, #125, #126 ) ) ;
#190 = EDGE_LOOP ( 'NONE', ( #134, #135, #138, #139, #140, #141, #144, #146 ) ) ;
#191 = EDGE_LOOP ( 'NONE', ( #175, #176, #183, #184 ) ) ;
#192 = DIRECTION ( 'NONE',  ( 0.0000000000000000000, 0.0000000000000000000, -1.000000000000000000 ) ) ;
#193 = ORIENTED_EDGE ( 'NONE', *, *, #332, .F. ) ;
#194 = ORIENTED_EDGE ( 'NONE', *, *, #341, .F. ) ;
#195 = DIRECTION ( 'NONE',  ( 0.0000000000000000000, 0.0000000000000000000, -1.000000000000000000 ) ) ;
#196 = ORIENTED_EDGE ( 'NONE', *, *, #316, .F. ) ;
#197 = VERTEX_POINT ( 'NONE', #270 ) ;
#198 = VERTEX_POINT ( 'NONE', #273 ) ;
#199 = VERTEX_POINT ( 'NONE', #258 ) ;
#200 = VERTEX_POINT ( 'NONE', #264 ) ;
#201 = ORIENTED_EDGE ( 'NONE', *, *, #321, .T. ) ;
#202 = ORIENTED_EDGE ( 'NONE', *, *, #319, .F. ) ;
#203 = VERTEX_POINT ( 'NONE', #259 ) ;
#204 = DIRECTION ( 'NONE',  ( 0.0000000000000000000, -1.000000000000000000, 0.0000000000000000000 ) ) ;
#205 = VERTEX_POINT ( 'NONE', #254 ) ;
#206 = DIRECTION ( 'NONE',  ( 1.982541115402065100E-016, 0.0000000000000000000, 1.000000000000000000 ) ) ;
#207 = VERTEX_POINT ( 'NONE', #242 ) ;
#208 = DIRECTION ( 'NONE',  ( -1.000000000000000000, 0.0000000000000000000, 1.982541115402065100E-016 ) ) ;
#209 = CARTESIAN_POINT ( 'NONE',  ( -55.00000000000000000, 4.000000000000000000, 35.00000000000000000 ) ) ;
#210 = PLANE ( 'NONE',  #303 ) ;
#211 = EDGE_LOOP ( 'NONE', ( #166, #167, #168, #169 ) ) ;
#212 = PLANE ( 'NONE',  #302 ) ;
#213 = DIRECTION ( 'NONE',  ( 0.0000000000000000000, -0.0000000000000000000, 1.000000000000000000 ) ) ;
#214 = FACE_OUTER_BOUND ( 'NONE', #191, .T. ) ;
#215 = DIRECTION ( 'NONE',  ( 0.0000000000000000000, 1.000000000000000000, 0.0000000000000000000 ) ) ;
#216 = CARTESIAN_POINT ( 'NONE',  ( 54.99999999999999300, 4.000000000000000000, -35.00000000000000000 ) ) ;
#217 = FILL_AREA_STYLE ('',( #304 ) ) ;
#218 = UNCERTAINTY_MEASURE_WITH_UNIT (LENGTH_MEASURE( 1.000000000000000100E-005 ), #158, 'distance_accuracy_value', 'NONE');
#219 = PRODUCT_RELATED_PRODUCT_CATEGORY ( 'part', '', ( #310 ) ) ;
#220 = APPLICATION_PROTOCOL_DEFINITION ( 'draft international standard', 'automotive_design', 1998, #73 ) ;
#221 = CARTESIAN_POINT ( 'NONE',  ( 52.00000000000001400, 0.0000000000000000000, 35.00000000000000000 ) ) ;
#222 = DIRECTION ( 'NONE',  ( 0.0000000000000000000, -0.0000000000000000000, 1.000000000000000000 ) ) ;
#223 = PRODUCT_DEFINITION_FORMATION_WITH_SPECIFIED_SOURCE ( 'ANY', '', #310, .NOT_KNOWN. ) ;
#224 = DIRECTION ( 'NONE',  ( 0.0000000000000000000, 1.000000000000000000, 0.0000000000000000000 ) ) ;
#225 = ADVANCED_BREP_SHAPE_REPRESENTATION ( '6290170', ( #337, #230 ), #272 ) ;
#226 = DIRECTION ( 'NONE',  ( 0.0000000000000000000, 0.0000000000000000000, 1.000000000000000000 ) ) ;
#227 = PRODUCT_DEFINITION ( 'UNKNOWN', '', #223, #265 ) ;
#228 = VERTEX_POINT ( 'NONE', #241 ) ;
#229 = CARTESIAN_POINT ( 'NONE',  ( 0.0000000000000000000, 4.000000000000000000, 0.0000000000000000000 ) ) ;
#230 = AXIS2_PLACEMENT_3D ( 'NONE', #307, #226, #49 ) ;
#231 = PLANE ( 'NONE',  #308 ) ;
#232 = PLANE ( 'NONE',  #306 ) ;
#233 = CARTESIAN_POINT ( 'NONE',  ( 0.0000000000000000000, 0.0000000000000000000, 0.0000000000000000000 ) ) ;
#234 = DIRECTION ( 'NONE',  ( 0.0000000000000000000, -1.000000000000000000, 0.0000000000000000000 ) ) ;
#235 = EDGE_LOOP ( 'NONE', ( #116, #117, #118, #121 ) ) ;
#236 = CARTESIAN_POINT ( 'NONE',  ( 52.00000000000000700, 4.000000000000000000, 32.00000000000000000 ) ) ;
#237 = DIRECTION ( 'NONE',  ( 0.0000000000000000000, 0.0000000000000000000, -1.000000000000000000 ) ) ;
#238 =( NAMED_UNIT ( * ) SI_UNIT ( $, .STERADIAN. ) SOLID_ANGLE_UNIT ( ) );
#239 = CARTESIAN_POINT ( 'NONE',  ( 51.99999999999999300, 4.000000000000000000, -32.00000000000000000 ) ) ;
#240 = ADVANCED_FACE ( 'NONE', ( #110 ), #107, .T. ) ;
#241 = CARTESIAN_POINT ( 'NONE',  ( -52.00000000000000000, 0.0000000000000000000, 35.00000000000000000 ) ) ;
#242 = CARTESIAN_POINT ( 'NONE',  ( -52.00000000000000700, 4.000000000000000000, -35.00000000000000000 ) ) ;
#243 = ADVANCED_FACE ( 'NONE', ( #112 ), #101, .T. ) ;
#244 = ADVANCED_FACE ( 'NONE', ( #104 ), #231, .F. ) ;
#245 = DIRECTION ( 'NONE',  ( -0.0000000000000000000, -1.000000000000000000, -0.0000000000000000000 ) ) ;
#246 =( NAMED_UNIT ( * ) PLANE_ANGLE_UNIT ( ) SI_UNIT ( $, .RADIAN. ) );
#247 = ADVANCED_FACE ( 'NONE', ( #105 ), #232, .T. ) ;
#248 = VERTEX_POINT ( 'NONE', #221 ) ;
#249 = ADVANCED_FACE ( 'NONE', ( #97 ), #210, .F. ) ;
#250 = CLOSED_SHELL ( 'NONE', ( #249, #255, #263, #251, #247, #244, #243, #240, #253, #268 ) ) ;
#251 = ADVANCED_FACE ( 'NONE', ( #99 ), #212, .F. ) ;
#252 =( GEOMETRIC_REPRESENTATION_CONTEXT ( 3 ) GLOBAL_UNCERTAINTY_ASSIGNED_CONTEXT ( ( #218 ) ) GLOBAL_UNIT_ASSIGNED_CONTEXT ( ( #158, #179, #129 ) ) REPRESENTATION_CONTEXT ( 'NONE', 'WORKASPACE' ) );
#253 = ADVANCED_FACE ( 'NONE', ( #214 ), #93, .T. ) ;
#254 = CARTESIAN_POINT ( 'NONE',  ( -55.00000000000000700, 4.000000000000000000, -32.00000000000000000 ) ) ;
#255 = ADVANCED_FACE ( 'NONE', ( #100 ), #165, .F. ) ;
#256 = DIRECTION ( 'NONE',  ( 0.0000000000000000000, -1.000000000000000000, 0.0000000000000000000 ) ) ;
#257 = MECHANICAL_DESIGN_GEOMETRIC_PRESENTATION_REPRESENTATION (  '', ( #266 ), #252 ) ;
#258 = CARTESIAN_POINT ( 'NONE',  ( -52.00000000000000000, 4.000000000000000000, 35.00000000000000000 ) ) ;
#259 = CARTESIAN_POINT ( 'NONE',  ( 54.99999999999999300, 4.000000000000000000, -32.00000000000000000 ) ) ;
#260 = CARTESIAN_POINT ( 'NONE',  ( 54.99999999999999300, 0.0000000000000000000, -32.00000000000000000 ) ) ;
#261 = CARTESIAN_POINT ( 'NONE',  ( -52.00000000000000700, 0.0000000000000000000, -35.00000000000000000 ) ) ;
#262 = PRESENTATION_LAYER_ASSIGNMENT (  '', '', ( #266 ) ) ;
#263 = ADVANCED_FACE ( 'NONE', ( #96 ), #172, .F. ) ;
#264 = CARTESIAN_POINT ( 'NONE',  ( 51.99999999999999300, 0.0000000000000000000, -35.00000000000000000 ) ) ;
#265 = PRODUCT_DEFINITION_CONTEXT ( 'detailed design', #33, 'design' ) ;
#266 = STYLED_ITEM ( 'NONE', ( #47 ), #225 ) ;
#267 = CARTESIAN_POINT ( 'NONE',  ( -55.00000000000000700, 0.0000000000000000000, -32.00000000000000000 ) ) ;
#268 = ADVANCED_FACE ( 'NONE', ( #91 ), #88, .T. ) ;
#269 = DIRECTION ( 'NONE',  ( 0.0000000000000000000, 0.0000000000000000000, -1.000000000000000000 ) ) ;
#270 = CARTESIAN_POINT ( 'NONE',  ( -55.00000000000000000, 0.0000000000000000000, 32.00000000000000000 ) ) ;
#271 = CARTESIAN_POINT ( 'NONE',  ( 51.99999999999999300, 4.000000000000000000, -35.00000000000000000 ) ) ;
#272 =( GEOMETRIC_REPRESENTATION_CONTEXT ( 3 ) GLOBAL_UNCERTAINTY_ASSIGNED_CONTEXT ( ( #300 ) ) GLOBAL_UNIT_ASSIGNED_CONTEXT ( ( #277, #246, #238 ) ) REPRESENTATION_CONTEXT ( 'NONE', 'WORKASPACE' ) );
#273 = CARTESIAN_POINT ( 'NONE',  ( 55.00000000000000700, 4.000000000000000000, 32.00000000000000000 ) ) ;
#274 = AXIS2_PLACEMENT_3D ( 'NONE', #281, #245, #279 ) ;
#275 = AXIS2_PLACEMENT_3D ( 'NONE', #305, #295, #296 ) ;
#276 = CARTESIAN_POINT ( 'NONE',  ( 52.00000000000001400, 4.000000000000000000, 35.00000000000000000 ) ) ;
#277 =( LENGTH_UNIT ( ) NAMED_UNIT ( * ) SI_UNIT ( .MILLI., .METRE. ) );
#278 = AXIS2_PLACEMENT_3D ( 'NONE', #322, #297, #320 ) ;
#279 = DIRECTION ( 'NONE',  ( 0.0000000000000000000, 0.0000000000000000000, 1.000000000000000000 ) ) ;
#280 = AXIS2_PLACEMENT_3D ( 'NONE', #317, #328, #323 ) ;
#281 = CARTESIAN_POINT ( 'NONE',  ( -52.00000000000000000, 0.0000000000000000000, 32.00000000000000000 ) ) ;
#282 =( GEOMETRIC_REPRESENTATION_CONTEXT ( 3 ) GLOBAL_UNCERTAINTY_ASSIGNED_CONTEXT ( ( #37 ) ) GLOBAL_UNIT_ASSIGNED_CONTEXT ( ( #3, #2, #1 ) ) REPRESENTATION_CONTEXT ( 'NONE', 'WORKASPACE' ) );
#283 = MECHANICAL_DESIGN_GEOMETRIC_PRESENTATION_REPRESENTATION (  '', ( #286 ), #282 ) ;
#284 = VERTEX_POINT ( 'NONE', #136 ) ;
#285 = PRESENTATION_LAYER_ASSIGNMENT (  '', '', ( #286 ) ) ;
#286 = STYLED_ITEM ( 'NONE', ( #56 ), #337 ) ;
#287 = LINE ( 'NONE', #30, #27 ) ;
#288 = AXIS2_PLACEMENT_3D ( 'NONE', #8, #7, #6 ) ;
#289 = VERTEX_POINT ( 'NONE', #132 ) ;
#290 = AXIS2_PLACEMENT_3D ( 'NONE', #63, #59, #58 ) ;
#291 = AXIS2_PLACEMENT_3D ( 'NONE', #143, #157, #151 ) ;
#292 = AXIS2_PLACEMENT_3D ( 'NONE', #113, #111, #109 ) ;
#293 = AXIS2_PLACEMENT_3D ( 'NONE', #163, #150, #145 ) ;
#294 = AXIS2_PLACEMENT_3D ( 'NONE', #102, #98, #95 ) ;
#295 = DIRECTION ( 'NONE',  ( 0.0000000000000000000, 1.000000000000000000, 0.0000000000000000000 ) ) ;
#296 = DIRECTION ( 'NONE',  ( 0.0000000000000000000, 0.0000000000000000000, 1.000000000000000000 ) ) ;
#297 = DIRECTION ( 'NONE',  ( 0.0000000000000000000, 1.000000000000000000, 0.0000000000000000000 ) ) ;
#298 = AXIS2_PLACEMENT_3D ( 'NONE', #178, #161, #159 ) ;
#299 = PRODUCT_DEFINITION_SHAPE ( 'NONE', 'NONE',  #227 ) ;
#300 = UNCERTAINTY_MEASURE_WITH_UNIT (LENGTH_MEASURE( 1.000000000000000100E-005 ), #277, 'distance_accuracy_value', 'NONE');
#301 = AXIS2_PLACEMENT_3D ( 'NONE', #181, #204, #195 ) ;
#302 = AXIS2_PLACEMENT_3D ( 'NONE', #209, #192, #185 ) ;
#303 = AXIS2_PLACEMENT_3D ( 'NONE', #216, #208, #206 ) ;
#304 = FILL_AREA_STYLE_COLOUR ( '', #48 ) ;
#305 = CARTESIAN_POINT ( 'NONE',  ( -52.00000000000000000, 4.000000000000000000, 32.00000000000000000 ) ) ;
#306 = AXIS2_PLACEMENT_3D ( 'NONE', #229, #215, #213 ) ;
#307 = CARTESIAN_POINT ( 'NONE',  ( 0.0000000000000000000, 0.0000000000000000000, 0.0000000000000000000 ) ) ;
#308 = AXIS2_PLACEMENT_3D ( 'NONE', #233, #224, #222 ) ;
#309 = AXIS2_PLACEMENT_3D ( 'NONE', #236, #234, #269 ) ;
#310 = PRODUCT ( '6290170', '6290170', '', ( #43 ) ) ;
#311 = AXIS2_PLACEMENT_3D ( 'NONE', #239, #256, #237 ) ;
#312 = EDGE_CURVE ( 'NONE', #153, #180, #86, .T. ) ;
#313 = EDGE_CURVE ( 'NONE', #200, #137, #103, .T. ) ;
#314 = EDGE_CURVE ( 'NONE', #137, #203, #94, .T. ) ;
#315 = EDGE_CURVE ( 'NONE', #130, #200, #90, .T. ) ;
#316 = EDGE_CURVE ( 'NONE', #199, #228, #89, .T. ) ;
#317 = CARTESIAN_POINT ( 'NONE',  ( -52.00000000000000700, 4.000000000000000000, -32.00000000000000000 ) ) ;
#318 = EDGE_CURVE ( 'NONE', #284, #248, #84, .T. ) ;
#319 = EDGE_CURVE ( 'NONE', #198, #203, #21, .T. ) ;
#320 = DIRECTION ( 'NONE',  ( 0.0000000000000000000, 0.0000000000000000000, 1.000000000000000000 ) ) ;
#321 = EDGE_CURVE ( 'NONE', #198, #284, #81, .T. ) ;
#322 = CARTESIAN_POINT ( 'NONE',  ( 51.99999999999999300, 4.000000000000000000, -32.00000000000000000 ) ) ;
#323 = DIRECTION ( 'NONE',  ( 0.0000000000000000000, 0.0000000000000000000, 1.000000000000000000 ) ) ;
#324 = EDGE_CURVE ( 'NONE', #284, #137, #79, .T. ) ;
#325 = EDGE_CURVE ( 'NONE', #130, #207, #77, .T. ) ;
#326 = EDGE_CURVE ( 'NONE', #200, #180, #74, .T. ) ;
#327 = EDGE_CURVE ( 'NONE', #180, #207, #32, .T. ) ;
#328 = DIRECTION ( 'NONE',  ( 0.0000000000000000000, 1.000000000000000000, 0.0000000000000000000 ) ) ;
#329 = EDGE_CURVE ( 'NONE', #205, #289, #31, .T. ) ;
#330 = EDGE_CURVE ( 'NONE', #205, #153, #287, .T. ) ;
#331 = EDGE_CURVE ( 'NONE', #153, #197, #23, .T. ) ;
#332 = EDGE_CURVE ( 'NONE', #197, #289, #28, .T. ) ;
#333 = EDGE_CURVE ( 'NONE', #228, #248, #69, .T. ) ;
#334 = EDGE_CURVE ( 'NONE', #248, #124, #67, .T. ) ;
#335 = EDGE_CURVE ( 'NONE', #199, #124, #82, .T. ) ;
#336 = EDGE_CURVE ( 'NONE', #124, #198, #62, .T. ) ;
#337 = MANIFOLD_SOLID_BREP ( 'Fillet1', #250 ) ;
#338 = EDGE_CURVE ( 'NONE', #207, #205, #54, .T. ) ;
#339 = EDGE_CURVE ( 'NONE', #203, #130, #60, .T. ) ;
#340 = EDGE_CURVE ( 'NONE', #289, #199, #53, .T. ) ;
#341 = EDGE_CURVE ( 'NONE', #228, #197, #52, .T. ) ;
#342 = VECTOR ( 'NONE', #34, 1000.000000000000000 ) ;
ENDSEC;
END-ISO-10303-21;
