ISO-10303-21;
HEADER;
FILE_DESCRIPTION (( 'STEP AP214' ),
    '1' );
FILE_NAME ('6290134.stp',
    '2016-06-29T05:43:08',
    ( '' ),
    ( '' ),
    'SwSTEP 2.0',
    'SolidWorks 2014',
    '' );
FILE_SCHEMA (( 'AUTOMOTIVE_DESIGN' ));
ENDSEC;

DATA;
#1 = CARTESIAN_POINT ( 'NONE',  ( 100.0000000000000000, 0.0000000000000000000, -75.00000000000001400 ) ) ;
#2 = ORIENTED_EDGE ( 'NONE', *, *, #265, .T. ) ;
#3 = AXIS2_PLACEMENT_3D ( 'NONE', #330, #329, #321 ) ;
#4 = CARTESIAN_POINT ( 'NONE',  ( 90.00000000000001400, 0.0000000000000000000, -85.00000000000000000 ) ) ;
#5 = AXIS2_PLACEMENT_3D ( 'NONE', #368, #79, #212 ) ;
#6 = DIRECTION ( 'NONE',  ( 0.0000000000000000000, 0.0000000000000000000, 1.000000000000000000 ) ) ;
#7 = DIRECTION ( 'NONE',  ( 1.000000000000000000, 0.0000000000000000000, -0.0000000000000000000 ) ) ;
#8 = AXIS2_PLACEMENT_3D ( 'NONE', #378, #370, #367 ) ;
#9 = ADVANCED_FACE ( 'NONE', ( #182 ), #285, .T. ) ;
#10 = DIRECTION ( 'NONE',  ( 0.0000000000000000000, 0.0000000000000000000, -1.000000000000000000 ) ) ;
#11 = DIRECTION ( 'NONE',  ( 0.0000000000000000000, 0.0000000000000000000, 1.000000000000000000 ) ) ;
#12 = ORIENTED_EDGE ( 'NONE', *, *, #191, .F. ) ;
#13 = CARTESIAN_POINT ( 'NONE',  ( 0.0000000000000000000, 0.0000000000000000000, 0.0000000000000000000 ) ) ;
#14 = DIRECTION ( 'NONE',  ( -1.000000000000000000, 0.0000000000000000000, -0.0000000000000000000 ) ) ;
#15 = AXIS2_PLACEMENT_3D ( 'NONE', #282, #147, #197 ) ;
#16 = CARTESIAN_POINT ( 'NONE',  ( -90.00000000000001400, 3.000000000000000000, 75.00000000000001400 ) ) ;
#17 = AXIS2_PLACEMENT_3D ( 'NONE', #34, #31, #30 ) ;
#18 = CARTESIAN_POINT ( 'NONE',  ( -90.00000000000001400, 3.000000000000000000, -85.00000000000000000 ) ) ;
#19 = DIRECTION ( 'NONE',  ( 0.0000000000000000000, -0.0000000000000000000, 1.000000000000000000 ) ) ;
#20 = PLANE ( 'NONE',  #347 ) ;
#21 = ORIENTED_EDGE ( 'NONE', *, *, #100, .F. ) ;
#22 = AXIS2_PLACEMENT_3D ( 'NONE', #346, #234, #239 ) ;
#23 =( NAMED_UNIT ( * ) SI_UNIT ( $, .STERADIAN. ) SOLID_ANGLE_UNIT ( ) );
#24 = ADVANCED_FACE ( 'NONE', ( #279 ), #300, .F. ) ;
#25 = FILL_AREA_STYLE_COLOUR ( '', #108 ) ;
#26 = ADVANCED_FACE ( 'NONE', ( #45 ), #340, .F. ) ;
#27 = VERTEX_POINT ( 'NONE', #262 ) ;
#28 = SHAPE_REPRESENTATION ( '000197T1_Standard', ( #190 ), #213 ) ;
#29 = CONTEXT_DEPENDENT_SHAPE_REPRESENTATION ( #55, #151 ) ;
#30 = DIRECTION ( 'NONE',  ( 0.0000000000000000000, 0.0000000000000000000, 1.000000000000000000 ) ) ;
#31 = DIRECTION ( 'NONE',  ( 0.0000000000000000000, 1.000000000000000000, 0.0000000000000000000 ) ) ;
#32 = AXIS2_PLACEMENT_3D ( 'NONE', #44, #219, #324 ) ;
#33 = CARTESIAN_POINT ( 'NONE',  ( -100.0000000000000000, 0.0000000000000000000, 75.00000000000001400 ) ) ;
#34 = CARTESIAN_POINT ( 'NONE',  ( -90.00000000000001400, 3.000000000000000000, -75.00000000000001400 ) ) ;
#35 = CARTESIAN_POINT ( 'NONE',  ( -90.00000000000001400, 0.0000000000000000000, -85.00000000000000000 ) ) ;
#36 = CARTESIAN_POINT ( 'NONE',  ( 90.00000000000001400, 3.000000000000000000, 84.99999999999998600 ) ) ;
#37 = ITEM_DEFINED_TRANSFORMATION ( 'NONE', 'NONE', #142,  #190 ) ;
#38 = SHAPE_DEFINITION_REPRESENTATION ( #94, #28 ) ;
#39 = SHAPE_DEFINITION_REPRESENTATION ( #73, #287 ) ;
#40 = AXIS2_PLACEMENT_3D ( 'NONE', #272, #267, #259 ) ;
#41 = CARTESIAN_POINT ( 'NONE',  ( -90.00000000000001400, 3.000000000000000000, 85.00000000000000000 ) ) ;
#42 = AXIS2_PLACEMENT_3D ( 'NONE', #310, #350, #293 ) ;
#43 = DIRECTION ( 'NONE',  ( 0.0000000000000000000, 0.0000000000000000000, 1.000000000000000000 ) ) ;
#44 = CARTESIAN_POINT ( 'NONE',  ( -90.00000000000001400, 0.0000000000000000000, -75.00000000000001400 ) ) ;
#45 = FACE_OUTER_BOUND ( 'NONE', #69, .T. ) ;
#46 = CARTESIAN_POINT ( 'NONE',  ( 99.99999999999998600, 3.000000000000000000, 75.00000000000001400 ) ) ;
#47 = CARTESIAN_POINT ( 'NONE',  ( -90.00000000000001400, 3.000000000000000000, -85.00000000000000000 ) ) ;
#48 = ORIENTED_EDGE ( 'NONE', *, *, #169, .T. ) ;
#49 = ADVANCED_FACE ( 'NONE', ( #256 ), #246, .T. ) ;
#50 = PRODUCT_DEFINITION_FORMATION_WITH_SPECIFIED_SOURCE ( 'ANY', '', #119, .NOT_KNOWN. ) ;
#51 = CARTESIAN_POINT ( 'NONE',  ( -99.99999999999998600, 0.0000000000000000000, -75.00000000000001400 ) ) ;
#52 = AXIS2_PLACEMENT_3D ( 'NONE', #16, #361, #10 ) ;
#53 = ADVANCED_FACE ( 'NONE', ( #251 ), #217, .F. ) ;
#54 = AXIS2_PLACEMENT_3D ( 'NONE', #348, #360, #19 ) ;
#55 =( REPRESENTATION_RELATIONSHIP ('NONE','NONE', #287, #28 ) REPRESENTATION_RELATIONSHIP_WITH_TRANSFORMATION ( #37 )SHAPE_REPRESENTATION_RELATIONSHIP( ) );
#56 = APPLICATION_PROTOCOL_DEFINITION ( 'draft international standard', 'automotive_design', 1998, #64 ) ;
#57 = DIRECTION ( 'NONE',  ( -1.000000000000000000, -0.0000000000000000000, -0.0000000000000000000 ) ) ;
#58 = AXIS2_PLACEMENT_3D ( 'NONE', #13, #126, #125 ) ;
#59 =( GEOMETRIC_REPRESENTATION_CONTEXT ( 3 ) GLOBAL_UNCERTAINTY_ASSIGNED_CONTEXT ( ( #97 ) ) GLOBAL_UNIT_ASSIGNED_CONTEXT ( ( #261, #258, #253 ) ) REPRESENTATION_CONTEXT ( 'NONE', 'WORKASPACE' ) );
#60 = DIRECTION ( 'NONE',  ( -0.0000000000000000000, -1.000000000000000000, -0.0000000000000000000 ) ) ;
#61 = PRODUCT ( '000197T1_Standard', '000197T1_Standard', '', ( #68 ) ) ;
#62 = DIRECTION ( 'NONE',  ( -1.000000000000000000, -0.0000000000000000000, -0.0000000000000000000 ) ) ;
#63 = PRODUCT_DEFINITION_FORMATION_WITH_SPECIFIED_SOURCE ( 'ANY', '', #61, .NOT_KNOWN. ) ;
#64 = APPLICATION_CONTEXT ( 'automotive_design' ) ;
#65 = VERTEX_POINT ( 'NONE', #179 ) ;
#66 = VERTEX_POINT ( 'NONE', #132 ) ;
#67 = ORIENTED_EDGE ( 'NONE', *, *, #283, .T. ) ;
#68 = PRODUCT_CONTEXT ( 'NONE', #122, 'mechanical' ) ;
#69 = EDGE_LOOP ( 'NONE', ( #311, #319, #194, #338, #353, #354, #356, #255 ) ) ;
#70 = PRESENTATION_STYLE_ASSIGNMENT (( #274 ) ) ;
#71 = APPLICATION_PROTOCOL_DEFINITION ( 'draft international standard', 'automotive_design', 1998, #122 ) ;
#72 = ADVANCED_FACE ( 'NONE', ( #247 ), #236, .T. ) ;
#73 = PRODUCT_DEFINITION_SHAPE ( 'NONE', 'NONE',  #113 ) ;
#74 = SURFACE_STYLE_FILL_AREA ( #202 ) ;
#75 = COLOUR_RGB ( '',0.4823529411764706000, 0.4901960784313725300, 0.4941176470588235500 ) ;
#76 = UNCERTAINTY_MEASURE_WITH_UNIT (LENGTH_MEASURE( 1.000000000000000100E-005 ), #172, 'distance_accuracy_value', 'NONE');
#77 = CARTESIAN_POINT ( 'NONE',  ( -100.0000000000000000, 3.000000000000000000, 75.00000000000001400 ) ) ;
#78 = PRESENTATION_LAYER_ASSIGNMENT (  '', '', ( #165 ) ) ;
#79 = DIRECTION ( 'NONE',  ( -0.0000000000000000000, -1.000000000000000000, -0.0000000000000000000 ) ) ;
#80 = DIRECTION ( 'NONE',  ( 0.0000000000000000000, 0.0000000000000000000, -1.000000000000000000 ) ) ;
#81 = ORIENTED_EDGE ( 'NONE', *, *, #271, .T. ) ;
#82 = APPLICATION_PROTOCOL_DEFINITION ( 'draft international standard', 'automotive_design', 1998, #84 ) ;
#83 = EDGE_CURVE ( 'NONE', #66, #307, #359, .T. ) ;
#84 = APPLICATION_CONTEXT ( 'automotive_design' ) ;
#85 = PRODUCT_CONTEXT ( 'NONE', #95, 'mechanical' ) ;
#86 = DIRECTION ( 'NONE',  ( 0.0000000000000000000, 1.000000000000000000, -0.0000000000000000000 ) ) ;
#87 = EDGE_CURVE ( 'NONE', #266, #374, #242, .T. ) ;
#88 = CARTESIAN_POINT ( 'NONE',  ( 90.00000000000001400, 3.000000000000000000, -75.00000000000001400 ) ) ;
#89 = EDGE_CURVE ( 'NONE', #66, #266, #249, .T. ) ;
#90 = SHAPE_REPRESENTATION_RELATIONSHIP ( 'NONE' , 'NONE' ,  #28, #222 ) ;
#91 = APPLICATION_PROTOCOL_DEFINITION ( 'draft international standard', 'automotive_design', 1998, #95 ) ;
#92 = EDGE_LOOP ( 'NONE', ( #2, #12, #373, #187 ) ) ;
#93 = MECHANICAL_DESIGN_GEOMETRIC_PRESENTATION_REPRESENTATION (  '', ( #165 ), #59 ) ;
#94 = PRODUCT_DEFINITION_SHAPE ( 'NONE', 'NONE',  #375 ) ;
#95 = APPLICATION_CONTEXT ( 'automotive_design' ) ;
#96 = EDGE_CURVE ( 'NONE', #374, #175, #229, .T. ) ;
#97 = UNCERTAINTY_MEASURE_WITH_UNIT (LENGTH_MEASURE( 1.000000000000000100E-005 ), #261, 'distance_accuracy_value', 'NONE');
#98 = CARTESIAN_POINT ( 'NONE',  ( -90.00000000000001400, 0.0000000000000000000, -85.00000000000000000 ) ) ;
#99 = CARTESIAN_POINT ( 'NONE',  ( -99.99999999999998600, 3.000000000000000000, -75.00000000000001400 ) ) ;
#100 = EDGE_CURVE ( 'NONE', #27, #175, #220, .T. ) ;
#101 = ADVANCED_FACE ( 'NONE', ( #227 ), #200, .T. ) ;
#102 = CARTESIAN_POINT ( 'NONE',  ( -99.99999999999998600, 0.0000000000000000000, -75.00000000000001400 ) ) ;
#103 = VERTEX_POINT ( 'NONE', #349 ) ;
#104 = CARTESIAN_POINT ( 'NONE',  ( -100.0000000000000000, 3.000000000000000000, 75.00000000000001400 ) ) ;
#105 = CARTESIAN_POINT ( 'NONE',  ( 99.99999999999998600, 0.0000000000000000000, 75.00000000000001400 ) ) ;
#106 = DIRECTION ( 'NONE',  ( 0.0000000000000000000, 0.0000000000000000000, -1.000000000000000000 ) ) ;
#107 = ORIENTED_EDGE ( 'NONE', *, *, #96, .T. ) ;
#108 = COLOUR_RGB ( '',0.4823529411764706000, 0.4901960784313725300, 0.4941176470588235500 ) ;
#109 = PRESENTATION_STYLE_ASSIGNMENT (( #372 ) ) ;
#110 = DIRECTION ( 'NONE',  ( -0.0000000000000000000, -1.000000000000000000, -0.0000000000000000000 ) ) ;
#111 = EDGE_CURVE ( 'NONE', #266, #27, #209, .T. ) ;
#112 = CARTESIAN_POINT ( 'NONE',  ( -90.00000000000001400, 3.000000000000000000, -85.00000000000000000 ) ) ;
#113 = PRODUCT_DEFINITION ( 'UNKNOWN', '', #50, #171 ) ;
#114 = DIRECTION ( 'NONE',  ( 0.0000000000000000000, 0.0000000000000000000, 1.000000000000000000 ) ) ;
#115 = SURFACE_STYLE_FILL_AREA ( #276 ) ;
#116 = CIRCLE ( 'NONE', #17, 9.999999999999980500 ) ;
#117 = CARTESIAN_POINT ( 'NONE',  ( -99.99999999999998600, 3.000000000000000000, -75.00000000000001400 ) ) ;
#118 = PRODUCT_DEFINITION_CONTEXT ( 'detailed design', #64, 'design' ) ;
#119 = PRODUCT ( '6290134', '6290134', '', ( #85 ) ) ;
#120 = DIRECTION ( 'NONE',  ( 0.0000000000000000000, 1.000000000000000000, 0.0000000000000000000 ) ) ;
#121 = EDGE_CURVE ( 'NONE', #175, #65, #216, .T. ) ;
#122 = APPLICATION_CONTEXT ( 'automotive_design' ) ;
#123 = ORIENTED_EDGE ( 'NONE', *, *, #196, .F. ) ;
#124 = FACE_OUTER_BOUND ( 'NONE', #231, .T. ) ;
#125 = DIRECTION ( 'NONE',  ( 1.000000000000000000, 0.0000000000000000000, 0.0000000000000000000 ) ) ;
#126 = DIRECTION ( 'NONE',  ( 0.0000000000000000000, 0.0000000000000000000, 1.000000000000000000 ) ) ;
#127 = EDGE_CURVE ( 'NONE', #297, #65, #201, .T. ) ;
#128 = CARTESIAN_POINT ( 'NONE',  ( -90.00000000000001400, 0.0000000000000000000, -75.00000000000001400 ) ) ;
#129 = EDGE_CURVE ( 'NONE', #27, #297, #203, .T. ) ;
#130 = VECTOR ( 'NONE', #62, 1000.000000000000000 ) ;
#131 = LINE ( 'NONE', #98, #130 ) ;
#132 = CARTESIAN_POINT ( 'NONE',  ( -99.99999999999998600, 3.000000000000000000, -75.00000000000001400 ) ) ;
#133 = LINE ( 'NONE', #51, #294 ) ;
#134 = PRODUCT_RELATED_PRODUCT_CATEGORY ( 'part', '', ( #119 ) ) ;
#135 = DIRECTION ( 'NONE',  ( 0.0000000000000000000, 0.0000000000000000000, -1.000000000000000000 ) ) ;
#136 = VECTOR ( 'NONE', #110, 1000.000000000000000 ) ;
#137 = CARTESIAN_POINT ( 'NONE',  ( -90.00000000000001400, 3.000000000000000000, 85.00000000000000000 ) ) ;
#138 = EDGE_LOOP ( 'NONE', ( #268, #357, #269, #270 ) ) ;
#139 = DIRECTION ( 'NONE',  ( 0.0000000000000000000, 1.000000000000000000, -0.0000000000000000000 ) ) ;
#140 = EDGE_CURVE ( 'NONE', #65, #264, #186, .T. ) ;
#141 = LINE ( 'NONE', #149, #136 ) ;
#142 = AXIS2_PLACEMENT_3D ( 'NONE', #223, #188, #173 ) ;
#143 = DIRECTION ( 'NONE',  ( -0.0000000000000000000, -1.000000000000000000, -0.0000000000000000000 ) ) ;
#144 = CARTESIAN_POINT ( 'NONE',  ( 90.00000000000001400, 0.0000000000000000000, -75.00000000000001400 ) ) ;
#145 = LINE ( 'NONE', #112, #152 ) ;
#146 = CIRCLE ( 'NONE', #252, 9.999999999999980500 ) ;
#147 = DIRECTION ( 'NONE',  ( -1.000000000000000000, 0.0000000000000000000, 0.0000000000000000000 ) ) ;
#148 = EDGE_CURVE ( 'NONE', #369, #264, #180, .T. ) ;
#149 = CARTESIAN_POINT ( 'NONE',  ( 90.00000000000001400, 3.000000000000000000, -85.00000000000000000 ) ) ;
#150 = FACE_OUTER_BOUND ( 'NONE', #138, .T. ) ;
#151 = PRODUCT_DEFINITION_SHAPE ( 'NONE', 'NONE',  #379 ) ;
#152 = VECTOR ( 'NONE', #57, 1000.000000000000000 ) ;
#153 = EDGE_CURVE ( 'NONE', #297, #369, #193, .T. ) ;
#154 = CIRCLE ( 'NONE', #206, 9.999999999999980500 ) ;
#155 = PRODUCT_RELATED_PRODUCT_CATEGORY ( 'part', '', ( #61 ) ) ;
#156 =( NAMED_UNIT ( * ) SI_UNIT ( $, .STERADIAN. ) SOLID_ANGLE_UNIT ( ) );
#157 = VECTOR ( 'NONE', #174, 1000.000000000000000 ) ;
#158 = VECTOR ( 'NONE', #314, 1000.000000000000000 ) ;
#159 = LINE ( 'NONE', #205, #157 ) ;
#160 = LINE ( 'NONE', #176, #337 ) ;
#161 = AXIS2_PLACEMENT_3D ( 'NONE', #240, #238, #232 ) ;
#162 = AXIS2_PLACEMENT_3D ( 'NONE', #245, #226, #225 ) ;
#163 = CYLINDRICAL_SURFACE ( 'NONE', #233, 9.999999999999980500 ) ;
#164 = CIRCLE ( 'NONE', #184, 9.999999999999980500 ) ;
#165 = STYLED_ITEM ( 'NONE', ( #70 ), #222 ) ;
#166 = EDGE_CURVE ( 'NONE', #264, #327, #250, .T. ) ;
#167 = CARTESIAN_POINT ( 'NONE',  ( 100.0000000000000000, 3.000000000000000000, -75.00000000000001400 ) ) ;
#168 = ADVANCED_FACE ( 'NONE', ( #150 ), #163, .T. ) ;
#169 = EDGE_CURVE ( 'NONE', #230, #327, #243, .T. ) ;
#170 = VECTOR ( 'NONE', #275, 1000.000000000000000 ) ;
#171 = PRODUCT_DEFINITION_CONTEXT ( 'detailed design', #84, 'design' ) ;
#172 =( LENGTH_UNIT ( ) NAMED_UNIT ( * ) SI_UNIT ( .MILLI., .METRE. ) );
#173 = DIRECTION ( 'NONE',  ( 1.000000000000000000, 0.0000000000000000000, 0.0000000000000000000 ) ) ;
#174 = DIRECTION ( 'NONE',  ( -0.0000000000000000000, -1.000000000000000000, -0.0000000000000000000 ) ) ;
#175 = VERTEX_POINT ( 'NONE', #195 ) ;
#176 = CARTESIAN_POINT ( 'NONE',  ( 99.99999999999998600, 3.000000000000000000, -75.00000000000001400 ) ) ;
#177 = VECTOR ( 'NONE', #183, 1000.000000000000000 ) ;
#178 = DIRECTION ( 'NONE',  ( -0.0000000000000000000, -0.0000000000000000000, -1.000000000000000000 ) ) ;
#179 = CARTESIAN_POINT ( 'NONE',  ( 90.00000000000001400, 0.0000000000000000000, 84.99999999999998600 ) ) ;
#180 = LINE ( 'NONE', #305, #158 ) ;
#181 = VECTOR ( 'NONE', #301, 1000.000000000000000 ) ;
#182 = FACE_OUTER_BOUND ( 'NONE', #273, .T. ) ;
#183 = DIRECTION ( 'NONE',  ( -0.0000000000000000000, -1.000000000000000000, -0.0000000000000000000 ) ) ;
#184 = AXIS2_PLACEMENT_3D ( 'NONE', #128, #120, #114 ) ;
#185 =( GEOMETRIC_REPRESENTATION_CONTEXT ( 3 ) GLOBAL_UNCERTAINTY_ASSIGNED_CONTEXT ( ( #76 ) ) GLOBAL_UNIT_ASSIGNED_CONTEXT ( ( #172, #254, #156 ) ) REPRESENTATION_CONTEXT ( 'NONE', 'WORKASPACE' ) );
#186 = CIRCLE ( 'NONE', #40, 9.999999999999980500 ) ;
#187 = ORIENTED_EDGE ( 'NONE', *, *, #241, .T. ) ;
#188 = DIRECTION ( 'NONE',  ( 0.0000000000000000000, 0.0000000000000000000, 1.000000000000000000 ) ) ;
#189 = VECTOR ( 'NONE', #309, 1000.000000000000000 ) ;
#190 = AXIS2_PLACEMENT_3D ( 'NONE', #306, #295, #292 ) ;
#191 = EDGE_CURVE ( 'NONE', #290, #291, #159, .T. ) ;
#192 = CARTESIAN_POINT ( 'NONE',  ( 100.0000000000000000, 3.000000000000000000, -75.00000000000001400 ) ) ;
#193 = CIRCLE ( 'NONE', #161, 9.999999999999980500 ) ;
#194 = ORIENTED_EDGE ( 'NONE', *, *, #218, .F. ) ;
#195 = CARTESIAN_POINT ( 'NONE',  ( -90.00000000000001400, 0.0000000000000000000, 85.00000000000000000 ) ) ;
#196 = EDGE_CURVE ( 'NONE', #369, #230, #160, .T. ) ;
#197 = DIRECTION ( 'NONE',  ( 0.0000000000000000000, 0.0000000000000000000, 1.000000000000000000 ) ) ;
#198 = VECTOR ( 'NONE', #343, 1000.000000000000000 ) ;
#199 = ORIENTED_EDGE ( 'NONE', *, *, #83, .T. ) ;
#200 = CYLINDRICAL_SURFACE ( 'NONE', #52, 9.999999999999980500 ) ;
#201 = LINE ( 'NONE', #333, #189 ) ;
#202 = FILL_AREA_STYLE ('',( #289 ) ) ;
#203 = LINE ( 'NONE', #334, #181 ) ;
#204 = FACE_OUTER_BOUND ( 'NONE', #92, .T. ) ;
#205 = CARTESIAN_POINT ( 'NONE',  ( -90.00000000000001400, 3.000000000000000000, -85.00000000000000000 ) ) ;
#206 = AXIS2_PLACEMENT_3D ( 'NONE', #144, #139, #135 ) ;
#207 = ORIENTED_EDGE ( 'NONE', *, *, #218, .T. ) ;
#208 = EDGE_LOOP ( 'NONE', ( #207, #308, #318, #48 ) ) ;
#209 = CIRCLE ( 'NONE', #3, 9.999999999999980500 ) ;
#210 = PLANE ( 'NONE',  #302 ) ;
#211 = DIRECTION ( 'NONE',  ( 0.0000000000000000000, 0.0000000000000000000, -1.000000000000000000 ) ) ;
#212 = DIRECTION ( 'NONE',  ( 0.0000000000000000000, 0.0000000000000000000, -1.000000000000000000 ) ) ;
#213 =( GEOMETRIC_REPRESENTATION_CONTEXT ( 3 ) GLOBAL_UNCERTAINTY_ASSIGNED_CONTEXT ( ( #298 ) ) GLOBAL_UNIT_ASSIGNED_CONTEXT ( ( #328, #323, #322 ) ) REPRESENTATION_CONTEXT ( 'NONE', 'WORKASPACE' ) );
#214 = DIRECTION ( 'NONE',  ( -0.0000000000000000000, -1.000000000000000000, -0.0000000000000000000 ) ) ;
#215 = VECTOR ( 'NONE', #60, 1000.000000000000000 ) ;
#216 = LINE ( 'NONE', #341, #198 ) ;
#217 = PLANE ( 'NONE',  #15 ) ;
#218 = EDGE_CURVE ( 'NONE', #327, #326, #154, .T. ) ;
#219 = DIRECTION ( 'NONE',  ( 0.0000000000000000000, 1.000000000000000000, 0.0000000000000000000 ) ) ;
#220 = LINE ( 'NONE', #41, #215 ) ;
#221 = VECTOR ( 'NONE', #6, 1000.000000000000000 ) ;
#222 = ADVANCED_BREP_SHAPE_REPRESENTATION ( '', ( #363, #190 ), #213 ) ;
#223 = CARTESIAN_POINT ( 'NONE',  ( 0.0000000000000000000, 0.0000000000000000000, 0.0000000000000000000 ) ) ;
#224 = EDGE_CURVE ( 'NONE', #291, #307, #164, .T. ) ;
#225 = DIRECTION ( 'NONE',  ( 1.000000000000000000, 0.0000000000000000000, 0.0000000000000000000 ) ) ;
#226 = DIRECTION ( 'NONE',  ( 0.0000000000000000000, 0.0000000000000000000, 1.000000000000000000 ) ) ;
#227 = FACE_OUTER_BOUND ( 'NONE', #304, .T. ) ;
#228 = VECTOR ( 'NONE', #315, 1000.000000000000000 ) ;
#229 = CIRCLE ( 'NONE', #8, 9.999999999999980500 ) ;
#230 = VERTEX_POINT ( 'NONE', #167 ) ;
#231 = EDGE_LOOP ( 'NONE', ( #316, #325, #331, #332 ) ) ;
#232 = DIRECTION ( 'NONE',  ( 0.0000000000000000000, 0.0000000000000000000, 1.000000000000000000 ) ) ;
#233 = AXIS2_PLACEMENT_3D ( 'NONE', #244, #214, #211 ) ;
#234 = DIRECTION ( 'NONE',  ( -0.0000000000000000000, -1.000000000000000000, -0.0000000000000000000 ) ) ;
#235 =( GEOMETRIC_REPRESENTATION_CONTEXT ( 3 ) GLOBAL_UNCERTAINTY_ASSIGNED_CONTEXT ( ( #342 ) ) GLOBAL_UNIT_ASSIGNED_CONTEXT ( ( #362, #358, #23 ) ) REPRESENTATION_CONTEXT ( 'NONE', 'WORKASPACE' ) );
#236 = CYLINDRICAL_SURFACE ( 'NONE', #5, 9.999999999999980500 ) ;
#237 = VECTOR ( 'NONE', #143, 1000.000000000000000 ) ;
#238 = DIRECTION ( 'NONE',  ( 0.0000000000000000000, 1.000000000000000000, 0.0000000000000000000 ) ) ;
#239 = DIRECTION ( 'NONE',  ( 0.0000000000000000000, 0.0000000000000000000, -1.000000000000000000 ) ) ;
#240 = CARTESIAN_POINT ( 'NONE',  ( 90.00000000000001400, 3.000000000000000000, 75.00000000000001400 ) ) ;
#241 = EDGE_CURVE ( 'NONE', #103, #326, #141, .T. ) ;
#242 = LINE ( 'NONE', #104, #228 ) ;
#243 = LINE ( 'NONE', #192, #177 ) ;
#244 = CARTESIAN_POINT ( 'NONE',  ( -90.00000000000001400, 3.000000000000000000, -75.00000000000001400 ) ) ;
#245 = CARTESIAN_POINT ( 'NONE',  ( 0.0000000000000000000, 0.0000000000000000000, 0.0000000000000000000 ) ) ;
#246 = CYLINDRICAL_SURFACE ( 'NONE', #22, 9.999999999999980500 ) ;
#247 = FACE_OUTER_BOUND ( 'NONE', #208, .T. ) ;
#248 = CARTESIAN_POINT ( 'NONE',  ( 99.99999999999998600, 0.0000000000000000000, -75.00000000000001400 ) ) ;
#249 = LINE ( 'NONE', #99, #221 ) ;
#250 = LINE ( 'NONE', #248, #170 ) ;
#251 = FACE_OUTER_BOUND ( 'NONE', #299, .T. ) ;
#252 = AXIS2_PLACEMENT_3D ( 'NONE', #88, #86, #80 ) ;
#253 =( NAMED_UNIT ( * ) SI_UNIT ( $, .STERADIAN. ) SOLID_ANGLE_UNIT ( ) );
#254 =( NAMED_UNIT ( * ) PLANE_ANGLE_UNIT ( ) SI_UNIT ( $, .RADIAN. ) );
#255 = ORIENTED_EDGE ( 'NONE', *, *, #277, .F. ) ;
#256 = FACE_OUTER_BOUND ( 'NONE', #317, .T. ) ;
#257 = MECHANICAL_DESIGN_GEOMETRIC_PRESENTATION_REPRESENTATION (  '', ( #320 ), #235 ) ;
#258 =( NAMED_UNIT ( * ) PLANE_ANGLE_UNIT ( ) SI_UNIT ( $, .RADIAN. ) );
#259 = DIRECTION ( 'NONE',  ( 0.0000000000000000000, 0.0000000000000000000, 1.000000000000000000 ) ) ;
#260 = EDGE_CURVE ( 'NONE', #230, #103, #146, .T. ) ;
#261 =( LENGTH_UNIT ( ) NAMED_UNIT ( * ) SI_UNIT ( .MILLI., .METRE. ) );
#262 = CARTESIAN_POINT ( 'NONE',  ( -90.00000000000001400, 3.000000000000000000, 85.00000000000000000 ) ) ;
#263 = ORIENTED_EDGE ( 'NONE', *, *, #196, .T. ) ;
#264 = VERTEX_POINT ( 'NONE', #105 ) ;
#265 = EDGE_CURVE ( 'NONE', #326, #291, #131, .T. ) ;
#266 = VERTEX_POINT ( 'NONE', #77 ) ;
#267 = DIRECTION ( 'NONE',  ( 0.0000000000000000000, 1.000000000000000000, 0.0000000000000000000 ) ) ;
#268 = ORIENTED_EDGE ( 'NONE', *, *, #224, .T. ) ;
#269 = ORIENTED_EDGE ( 'NONE', *, *, #283, .F. ) ;
#270 = ORIENTED_EDGE ( 'NONE', *, *, #191, .T. ) ;
#271 = EDGE_CURVE ( 'NONE', #103, #290, #145, .T. ) ;
#272 = CARTESIAN_POINT ( 'NONE',  ( 90.00000000000001400, 0.0000000000000000000, 75.00000000000001400 ) ) ;
#273 = EDGE_LOOP ( 'NONE', ( #67, #364, #312, #366, #344, #263, #286, #81 ) ) ;
#274 = SURFACE_STYLE_USAGE ( .BOTH. , #278 ) ;
#275 = DIRECTION ( 'NONE',  ( -0.0000000000000000000, -0.0000000000000000000, -1.000000000000000000 ) ) ;
#276 = FILL_AREA_STYLE ('',( #25 ) ) ;
#277 = EDGE_CURVE ( 'NONE', #307, #374, #133, .T. ) ;
#278 = SURFACE_SIDE_STYLE ('',( #74 ) ) ;
#279 = FACE_OUTER_BOUND ( 'NONE', #351, .T. ) ;
#280 = ORIENTED_EDGE ( 'NONE', *, *, #277, .T. ) ;
#281 = PRESENTATION_LAYER_ASSIGNMENT (  '', '', ( #320 ) ) ;
#282 = CARTESIAN_POINT ( 'NONE',  ( 99.99999999999998600, 3.000000000000000000, -75.00000000000001400 ) ) ;
#283 = EDGE_CURVE ( 'NONE', #290, #66, #116, .T. ) ;
#284 = ORIENTED_EDGE ( 'NONE', *, *, #87, .F. ) ;
#285 = PLANE ( 'NONE',  #54 ) ;
#286 = ORIENTED_EDGE ( 'NONE', *, *, #260, .T. ) ;
#287 = SHAPE_REPRESENTATION ( '6290134', ( #58, #142 ), #185 ) ;
#288 = ORIENTED_EDGE ( 'NONE', *, *, #89, .F. ) ;
#289 = FILL_AREA_STYLE_COLOUR ( '', #75 ) ;
#290 = VERTEX_POINT ( 'NONE', #47 ) ;
#291 = VERTEX_POINT ( 'NONE', #35 ) ;
#292 = DIRECTION ( 'NONE',  ( 1.000000000000000000, 0.0000000000000000000, 0.0000000000000000000 ) ) ;
#293 = DIRECTION ( 'NONE',  ( 0.0000000000000000000, 0.0000000000000000000, -1.000000000000000000 ) ) ;
#294 = VECTOR ( 'NONE', #43, 1000.000000000000000 ) ;
#295 = DIRECTION ( 'NONE',  ( 0.0000000000000000000, 0.0000000000000000000, 1.000000000000000000 ) ) ;
#296 = ORIENTED_EDGE ( 'NONE', *, *, #111, .F. ) ;
#297 = VERTEX_POINT ( 'NONE', #36 ) ;
#298 = UNCERTAINTY_MEASURE_WITH_UNIT (LENGTH_MEASURE( 1.000000000000000100E-005 ), #328, 'distance_accuracy_value', 'NONE');
#299 = EDGE_LOOP ( 'NONE', ( #355, #371, #123, #365 ) ) ;
#300 = PLANE ( 'NONE',  #42 ) ;
#301 = DIRECTION ( 'NONE',  ( 1.000000000000000000, 0.0000000000000000000, 0.0000000000000000000 ) ) ;
#302 = AXIS2_PLACEMENT_3D ( 'NONE', #137, #106, #14 ) ;
#303 = ORIENTED_EDGE ( 'NONE', *, *, #87, .T. ) ;
#304 = EDGE_LOOP ( 'NONE', ( #107, #21, #296, #303 ) ) ;
#305 = CARTESIAN_POINT ( 'NONE',  ( 99.99999999999998600, 3.000000000000000000, 75.00000000000001400 ) ) ;
#306 = CARTESIAN_POINT ( 'NONE',  ( 0.0000000000000000000, 0.0000000000000000000, 0.0000000000000000000 ) ) ;
#307 = VERTEX_POINT ( 'NONE', #102 ) ;
#308 = ORIENTED_EDGE ( 'NONE', *, *, #241, .F. ) ;
#309 = DIRECTION ( 'NONE',  ( -0.0000000000000000000, -1.000000000000000000, -0.0000000000000000000 ) ) ;
#310 = CARTESIAN_POINT ( 'NONE',  ( -99.99999999999998600, 3.000000000000000000, -75.00000000000001400 ) ) ;
#311 = ORIENTED_EDGE ( 'NONE', *, *, #224, .F. ) ;
#312 = ORIENTED_EDGE ( 'NONE', *, *, #111, .T. ) ;
#313 = ADVANCED_FACE ( 'NONE', ( #204 ), #20, .F. ) ;
#314 = DIRECTION ( 'NONE',  ( -0.0000000000000000000, -1.000000000000000000, -0.0000000000000000000 ) ) ;
#315 = DIRECTION ( 'NONE',  ( -0.0000000000000000000, -1.000000000000000000, -0.0000000000000000000 ) ) ;
#316 = ORIENTED_EDGE ( 'NONE', *, *, #121, .T. ) ;
#317 = EDGE_LOOP ( 'NONE', ( #336, #339, #345, #352 ) ) ;
#318 = ORIENTED_EDGE ( 'NONE', *, *, #260, .F. ) ;
#319 = ORIENTED_EDGE ( 'NONE', *, *, #265, .F. ) ;
#320 = STYLED_ITEM ( 'NONE', ( #109 ), #363 ) ;
#321 = DIRECTION ( 'NONE',  ( 0.0000000000000000000, 0.0000000000000000000, 1.000000000000000000 ) ) ;
#322 =( NAMED_UNIT ( * ) SI_UNIT ( $, .STERADIAN. ) SOLID_ANGLE_UNIT ( ) );
#323 =( NAMED_UNIT ( * ) PLANE_ANGLE_UNIT ( ) SI_UNIT ( $, .RADIAN. ) );
#324 = DIRECTION ( 'NONE',  ( 0.0000000000000000000, -0.0000000000000000000, 1.000000000000000000 ) ) ;
#325 = ORIENTED_EDGE ( 'NONE', *, *, #127, .F. ) ;
#326 = VERTEX_POINT ( 'NONE', #4 ) ;
#327 = VERTEX_POINT ( 'NONE', #1 ) ;
#328 =( LENGTH_UNIT ( ) NAMED_UNIT ( * ) SI_UNIT ( .MILLI., .METRE. ) );
#329 = DIRECTION ( 'NONE',  ( 0.0000000000000000000, 1.000000000000000000, 0.0000000000000000000 ) ) ;
#330 = CARTESIAN_POINT ( 'NONE',  ( -90.00000000000001400, 3.000000000000000000, 75.00000000000001400 ) ) ;
#331 = ORIENTED_EDGE ( 'NONE', *, *, #129, .F. ) ;
#332 = ORIENTED_EDGE ( 'NONE', *, *, #100, .T. ) ;
#333 = CARTESIAN_POINT ( 'NONE',  ( 90.00000000000001400, 3.000000000000000000, 84.99999999999998600 ) ) ;
#334 = CARTESIAN_POINT ( 'NONE',  ( -90.00000000000001400, 3.000000000000000000, 85.00000000000000000 ) ) ;
#335 = ADVANCED_FACE ( 'NONE', ( #124 ), #210, .F. ) ;
#336 = ORIENTED_EDGE ( 'NONE', *, *, #140, .T. ) ;
#337 = VECTOR ( 'NONE', #178, 1000.000000000000000 ) ;
#338 = ORIENTED_EDGE ( 'NONE', *, *, #166, .F. ) ;
#339 = ORIENTED_EDGE ( 'NONE', *, *, #148, .F. ) ;
#340 = PLANE ( 'NONE',  #32 ) ;
#341 = CARTESIAN_POINT ( 'NONE',  ( -90.00000000000001400, 0.0000000000000000000, 85.00000000000000000 ) ) ;
#342 = UNCERTAINTY_MEASURE_WITH_UNIT (LENGTH_MEASURE( 1.000000000000000100E-005 ), #362, 'distance_accuracy_value', 'NONE');
#343 = DIRECTION ( 'NONE',  ( 1.000000000000000000, 0.0000000000000000000, 0.0000000000000000000 ) ) ;
#344 = ORIENTED_EDGE ( 'NONE', *, *, #153, .T. ) ;
#345 = ORIENTED_EDGE ( 'NONE', *, *, #153, .F. ) ;
#346 = CARTESIAN_POINT ( 'NONE',  ( 90.00000000000001400, 3.000000000000000000, 75.00000000000001400 ) ) ;
#347 = AXIS2_PLACEMENT_3D ( 'NONE', #18, #11, #7 ) ;
#348 = CARTESIAN_POINT ( 'NONE',  ( -90.00000000000001400, 3.000000000000000000, -75.00000000000001400 ) ) ;
#349 = CARTESIAN_POINT ( 'NONE',  ( 90.00000000000001400, 3.000000000000000000, -85.00000000000000000 ) ) ;
#350 = DIRECTION ( 'NONE',  ( 1.000000000000000000, 0.0000000000000000000, 0.0000000000000000000 ) ) ;
#351 = EDGE_LOOP ( 'NONE', ( #280, #284, #288, #199 ) ) ;
#352 = ORIENTED_EDGE ( 'NONE', *, *, #127, .T. ) ;
#353 = ORIENTED_EDGE ( 'NONE', *, *, #140, .F. ) ;
#354 = ORIENTED_EDGE ( 'NONE', *, *, #121, .F. ) ;
#355 = ORIENTED_EDGE ( 'NONE', *, *, #166, .T. ) ;
#356 = ORIENTED_EDGE ( 'NONE', *, *, #96, .F. ) ;
#357 = ORIENTED_EDGE ( 'NONE', *, *, #83, .F. ) ;
#358 =( NAMED_UNIT ( * ) PLANE_ANGLE_UNIT ( ) SI_UNIT ( $, .RADIAN. ) );
#359 = LINE ( 'NONE', #117, #237 ) ;
#360 = DIRECTION ( 'NONE',  ( 0.0000000000000000000, 1.000000000000000000, 0.0000000000000000000 ) ) ;
#361 = DIRECTION ( 'NONE',  ( -0.0000000000000000000, -1.000000000000000000, -0.0000000000000000000 ) ) ;
#362 =( LENGTH_UNIT ( ) NAMED_UNIT ( * ) SI_UNIT ( .MILLI., .METRE. ) );
#363 = MANIFOLD_SOLID_BREP ( 'Linear austragen1', #377 ) ;
#364 = ORIENTED_EDGE ( 'NONE', *, *, #89, .T. ) ;
#365 = ORIENTED_EDGE ( 'NONE', *, *, #148, .T. ) ;
#366 = ORIENTED_EDGE ( 'NONE', *, *, #129, .T. ) ;
#367 = DIRECTION ( 'NONE',  ( 0.0000000000000000000, 0.0000000000000000000, 1.000000000000000000 ) ) ;
#368 = CARTESIAN_POINT ( 'NONE',  ( 90.00000000000001400, 3.000000000000000000, -75.00000000000001400 ) ) ;
#369 = VERTEX_POINT ( 'NONE', #46 ) ;
#370 = DIRECTION ( 'NONE',  ( 0.0000000000000000000, 1.000000000000000000, 0.0000000000000000000 ) ) ;
#371 = ORIENTED_EDGE ( 'NONE', *, *, #169, .F. ) ;
#372 = SURFACE_STYLE_USAGE ( .BOTH. , #376 ) ;
#373 = ORIENTED_EDGE ( 'NONE', *, *, #271, .F. ) ;
#374 = VERTEX_POINT ( 'NONE', #33 ) ;
#375 = PRODUCT_DEFINITION ( 'UNKNOWN', '', #63, #118 ) ;
#376 = SURFACE_SIDE_STYLE ('',( #115 ) ) ;
#377 = CLOSED_SHELL ( 'NONE', ( #168, #24, #101, #335, #49, #53, #72, #313, #9, #26 ) ) ;
#378 = CARTESIAN_POINT ( 'NONE',  ( -90.00000000000001400, 0.0000000000000000000, 75.00000000000001400 ) ) ;
#379 = NEXT_ASSEMBLY_USAGE_OCCURRENCE ( 'NAUO1', ' ', ' ', #113, #375, $ ) ;
ENDSEC;
END-ISO-10303-21;
