ISO-10303-21;
HEADER;
FILE_DESCRIPTION (( 'STEP AP214' ),
    '1' );
FILE_NAME ('6290130.stp',
    '2016-06-29T05:42:25',
    ( '' ),
    ( '' ),
    'SwSTEP 2.0',
    'SolidWorks 2014',
    '' );
FILE_SCHEMA (( 'AUTOMOTIVE_DESIGN' ));
ENDSEC;

DATA;
#1 = CARTESIAN_POINT ( 'NONE',  ( -90.00000000000001400, 0.0000000000000000000, 85.00000000000000000 ) ) ;
#2 = ORIENTED_EDGE ( 'NONE', *, *, #284, .F. ) ;
#3 = ORIENTED_EDGE ( 'NONE', *, *, #332, .T. ) ;
#4 = EDGE_CURVE ( 'NONE', #264, #75, #339, .T. ) ;
#5 = AXIS2_PLACEMENT_3D ( 'NONE', #269, #212, #117 ) ;
#6 =( LENGTH_UNIT ( ) NAMED_UNIT ( * ) SI_UNIT ( .MILLI., .METRE. ) );
#7 = DIRECTION ( 'NONE',  ( 0.0000000000000000000, 1.000000000000000000, 0.0000000000000000000 ) ) ;
#8 = EDGE_CURVE ( 'NONE', #363, #252, #300, .T. ) ;
#9 = LINE ( 'NONE', #366, #225 ) ;
#10 = CARTESIAN_POINT ( 'NONE',  ( 90.00000000000001400, 0.0000000000000000000, -75.00000000000001400 ) ) ;
#11 = AXIS2_PLACEMENT_3D ( 'NONE', #18, #273, #132 ) ;
#12 = CARTESIAN_POINT ( 'NONE',  ( -90.00000000000001400, 3.000000000000000000, -85.00000000000000000 ) ) ;
#13 = SURFACE_STYLE_FILL_AREA ( #84 ) ;
#14 = PLANE ( 'NONE',  #85 ) ;
#15 = EDGE_CURVE ( 'NONE', #224, #43, #226, .T. ) ;
#16 = ORIENTED_EDGE ( 'NONE', *, *, #353, .F. ) ;
#17 = FACE_OUTER_BOUND ( 'NONE', #155, .T. ) ;
#18 = CARTESIAN_POINT ( 'NONE',  ( -90.00000000000001400, 3.000000000000000000, -75.00000000000001400 ) ) ;
#19 = DIRECTION ( 'NONE',  ( -0.0000000000000000000, -1.000000000000000000, -0.0000000000000000000 ) ) ;
#20 = EDGE_LOOP ( 'NONE', ( #47, #105, #312, #93 ) ) ;
#21 = AXIS2_PLACEMENT_3D ( 'NONE', #186, #142, #23 ) ;
#22 = VERTEX_POINT ( 'NONE', #1 ) ;
#23 = DIRECTION ( 'NONE',  ( 1.000000000000000000, 0.0000000000000000000, 0.0000000000000000000 ) ) ;
#24 = VERTEX_POINT ( 'NONE', #337 ) ;
#25 = LINE ( 'NONE', #234, #318 ) ;
#26 = EDGE_CURVE ( 'NONE', #75, #202, #257, .T. ) ;
#27 = DIRECTION ( 'NONE',  ( 1.000000000000000000, 0.0000000000000000000, 0.0000000000000000000 ) ) ;
#28 = DIRECTION ( 'NONE',  ( 0.0000000000000000000, 0.0000000000000000000, -1.000000000000000000 ) ) ;
#29 = ORIENTED_EDGE ( 'NONE', *, *, #32, .T. ) ;
#30 = CARTESIAN_POINT ( 'NONE',  ( 90.00000000000001400, 3.000000000000000000, 75.00000000000001400 ) ) ;
#31 = CARTESIAN_POINT ( 'NONE',  ( 100.0000000000000000, 0.0000000000000000000, -75.00000000000001400 ) ) ;
#32 = EDGE_CURVE ( 'NONE', #24, #363, #199, .T. ) ;
#33 = CONTEXT_DEPENDENT_SHAPE_REPRESENTATION ( #352, #113 ) ;
#34 = VECTOR ( 'NONE', #289, 1000.000000000000000 ) ;
#35 = APPLICATION_PROTOCOL_DEFINITION ( 'draft international standard', 'automotive_design', 1998, #223 ) ;
#36 = CARTESIAN_POINT ( 'NONE',  ( 90.00000000000001400, 3.000000000000000000, -75.00000000000001400 ) ) ;
#37 = DIRECTION ( 'NONE',  ( -0.0000000000000000000, -1.000000000000000000, -0.0000000000000000000 ) ) ;
#38 = DIRECTION ( 'NONE',  ( -0.0000000000000000000, -1.000000000000000000, -0.0000000000000000000 ) ) ;
#39 = ADVANCED_FACE ( 'NONE', ( #288 ), #46, .F. ) ;
#40 = VECTOR ( 'NONE', #329, 1000.000000000000000 ) ;
#41 = CARTESIAN_POINT ( 'NONE',  ( 90.00000000000001400, 3.000000000000000000, -85.00000000000000000 ) ) ;
#42 = ORIENTED_EDGE ( 'NONE', *, *, #119, .T. ) ;
#43 = VERTEX_POINT ( 'NONE', #319 ) ;
#44 = PRODUCT_DEFINITION ( 'UNKNOWN', '', #138, #183 ) ;
#45 =( LENGTH_UNIT ( ) NAMED_UNIT ( * ) SI_UNIT ( .MILLI., .METRE. ) );
#46 = PLANE ( 'NONE',  #101 ) ;
#47 = ORIENTED_EDGE ( 'NONE', *, *, #64, .T. ) ;
#48 = SHAPE_DEFINITION_REPRESENTATION ( #378, #268 ) ;
#49 = FACE_OUTER_BOUND ( 'NONE', #243, .T. ) ;
#50 = AXIS2_PLACEMENT_3D ( 'NONE', #174, #28, #148 ) ;
#51 = CARTESIAN_POINT ( 'NONE',  ( -90.00000000000001400, 3.000000000000000000, 85.00000000000000000 ) ) ;
#52 = LINE ( 'NONE', #307, #350 ) ;
#53 = VECTOR ( 'NONE', #19, 1000.000000000000000 ) ;
#54 = ORIENTED_EDGE ( 'NONE', *, *, #367, .T. ) ;
#55 = CYLINDRICAL_SURFACE ( 'NONE', #305, 9.999999999999980500 ) ;
#56 = DIRECTION ( 'NONE',  ( 0.0000000000000000000, 0.0000000000000000000, 1.000000000000000000 ) ) ;
#57 = CARTESIAN_POINT ( 'NONE',  ( -90.00000000000001400, 0.0000000000000000000, 75.00000000000001400 ) ) ;
#58 =( NAMED_UNIT ( * ) SI_UNIT ( $, .STERADIAN. ) SOLID_ANGLE_UNIT ( ) );
#59 = CARTESIAN_POINT ( 'NONE',  ( 90.00000000000001400, 0.0000000000000000000, 75.00000000000001400 ) ) ;
#60 = ORIENTED_EDGE ( 'NONE', *, *, #144, .F. ) ;
#61 = FACE_OUTER_BOUND ( 'NONE', #104, .T. ) ;
#62 = EDGE_CURVE ( 'NONE', #363, #311, #158, .T. ) ;
#63 = CARTESIAN_POINT ( 'NONE',  ( -90.00000000000001400, 3.000000000000000000, 75.00000000000001400 ) ) ;
#64 = EDGE_CURVE ( 'NONE', #311, #121, #211, .T. ) ;
#65 = DIRECTION ( 'NONE',  ( -0.0000000000000000000, -1.000000000000000000, -0.0000000000000000000 ) ) ;
#66 = VERTEX_POINT ( 'NONE', #209 ) ;
#67 = AXIS2_PLACEMENT_3D ( 'NONE', #63, #7, #241 ) ;
#68 = SURFACE_STYLE_USAGE ( .BOTH. , #70 ) ;
#69 = ORIENTED_EDGE ( 'NONE', *, *, #338, .F. ) ;
#70 = SURFACE_SIDE_STYLE ('',( #291 ) ) ;
#71 = EDGE_LOOP ( 'NONE', ( #218, #167, #81, #239, #275, #182, #214, #173 ) ) ;
#72 = ORIENTED_EDGE ( 'NONE', *, *, #197, .T. ) ;
#73 = DIRECTION ( 'NONE',  ( 0.0000000000000000000, 1.000000000000000000, 0.0000000000000000000 ) ) ;
#74 = CARTESIAN_POINT ( 'NONE',  ( -99.99999999999998600, 3.000000000000000000, -75.00000000000001400 ) ) ;
#75 = VERTEX_POINT ( 'NONE', #187 ) ;
#76 = VECTOR ( 'NONE', #65, 1000.000000000000000 ) ;
#77 = DIRECTION ( 'NONE',  ( 0.0000000000000000000, 0.0000000000000000000, -1.000000000000000000 ) ) ;
#78 = DIRECTION ( 'NONE',  ( 0.0000000000000000000, 0.0000000000000000000, -1.000000000000000000 ) ) ;
#79 = CARTESIAN_POINT ( 'NONE',  ( 0.0000000000000000000, 0.0000000000000000000, 0.0000000000000000000 ) ) ;
#80 = PRODUCT_DEFINITION ( 'UNKNOWN', '', #95, #328 ) ;
#81 = ORIENTED_EDGE ( 'NONE', *, *, #15, .F. ) ;
#82 = FILL_AREA_STYLE_COLOUR ( '', #86 ) ;
#83 = CYLINDRICAL_SURFACE ( 'NONE', #146, 9.999999999999980500 ) ;
#84 = FILL_AREA_STYLE ('',( #82 ) ) ;
#85 = AXIS2_PLACEMENT_3D ( 'NONE', #12, #377, #188 ) ;
#86 = COLOUR_RGB ( '',0.4823529411764706000, 0.4901960784313725300, 0.4941176470588235500 ) ;
#87 = EDGE_LOOP ( 'NONE', ( #54, #203, #206, #29, #285, #290, #42, #340 ) ) ;
#88 = UNCERTAINTY_MEASURE_WITH_UNIT (LENGTH_MEASURE( 1.000000000000000100E-005 ), #45, 'distance_accuracy_value', 'NONE');
#89 = CIRCLE ( 'NONE', #365, 9.999999999999980500 ) ;
#90 = DIRECTION ( 'NONE',  ( 0.0000000000000000000, 1.000000000000000000, 0.0000000000000000000 ) ) ;
#91 = CARTESIAN_POINT ( 'NONE',  ( -90.00000000000001400, 3.000000000000000000, -85.00000000000000000 ) ) ;
#92 = VECTOR ( 'NONE', #242, 1000.000000000000000 ) ;
#93 = ORIENTED_EDGE ( 'NONE', *, *, #62, .T. ) ;
#94 = CARTESIAN_POINT ( 'NONE',  ( -90.00000000000001400, 3.000000000000000000, -85.00000000000000000 ) ) ;
#95 = PRODUCT_DEFINITION_FORMATION_WITH_SPECIFIED_SOURCE ( 'ANY', '', #136, .NOT_KNOWN. ) ;
#96 =( NAMED_UNIT ( * ) SI_UNIT ( $, .STERADIAN. ) SOLID_ANGLE_UNIT ( ) );
#97 =( LENGTH_UNIT ( ) NAMED_UNIT ( * ) SI_UNIT ( .MILLI., .METRE. ) );
#98 = ORIENTED_EDGE ( 'NONE', *, *, #336, .T. ) ;
#99 = FACE_OUTER_BOUND ( 'NONE', #71, .T. ) ;
#100 = DIRECTION ( 'NONE',  ( 0.0000000000000000000, 0.0000000000000000000, 1.000000000000000000 ) ) ;
#101 = AXIS2_PLACEMENT_3D ( 'NONE', #74, #356, #78 ) ;
#102 = PLANE ( 'NONE',  #11 ) ;
#103 = STYLED_ITEM ( 'NONE', ( #215 ), #333 ) ;
#104 = EDGE_LOOP ( 'NONE', ( #325, #349, #191, #324 ) ) ;
#105 = ORIENTED_EDGE ( 'NONE', *, *, #332, .F. ) ;
#106 = VECTOR ( 'NONE', #38, 1000.000000000000000 ) ;
#107 =( NAMED_UNIT ( * ) PLANE_ANGLE_UNIT ( ) SI_UNIT ( $, .RADIAN. ) );
#108 =( GEOMETRIC_REPRESENTATION_CONTEXT ( 3 ) GLOBAL_UNCERTAINTY_ASSIGNED_CONTEXT ( ( #116 ) ) GLOBAL_UNIT_ASSIGNED_CONTEXT ( ( #6, #279, #245 ) ) REPRESENTATION_CONTEXT ( 'NONE', 'WORKASPACE' ) );
#109 = CYLINDRICAL_SURFACE ( 'NONE', #270, 9.999999999999980500 ) ;
#110 = CIRCLE ( 'NONE', #164, 9.999999999999980500 ) ;
#111 = ORIENTED_EDGE ( 'NONE', *, *, #26, .T. ) ;
#112 = ADVANCED_FACE ( 'NONE', ( #61 ), #314, .F. ) ;
#113 = PRODUCT_DEFINITION_SHAPE ( 'NONE', 'NONE',  #379 ) ;
#114 = APPLICATION_CONTEXT ( 'automotive_design' ) ;
#115 = PRODUCT_RELATED_PRODUCT_CATEGORY ( 'part', '', ( #136 ) ) ;
#116 = UNCERTAINTY_MEASURE_WITH_UNIT (LENGTH_MEASURE( 1.000000000000000100E-005 ), #6, 'distance_accuracy_value', 'NONE');
#117 = DIRECTION ( 'NONE',  ( 0.0000000000000000000, -0.0000000000000000000, 1.000000000000000000 ) ) ;
#118 = LINE ( 'NONE', #210, #240 ) ;
#119 = EDGE_CURVE ( 'NONE', #303, #161, #364, .T. ) ;
#120 = CARTESIAN_POINT ( 'NONE',  ( -90.00000000000001400, 3.000000000000000000, 75.00000000000001400 ) ) ;
#121 = VERTEX_POINT ( 'NONE', #198 ) ;
#122 = ADVANCED_FACE ( 'NONE', ( #204 ), #55, .T. ) ;
#123 = DIRECTION ( 'NONE',  ( -0.0000000000000000000, -1.000000000000000000, -0.0000000000000000000 ) ) ;
#124 = DIRECTION ( 'NONE',  ( -0.0000000000000000000, -0.0000000000000000000, -1.000000000000000000 ) ) ;
#125 = DIRECTION ( 'NONE',  ( -0.0000000000000000000, -1.000000000000000000, -0.0000000000000000000 ) ) ;
#126 = VECTOR ( 'NONE', #265, 1000.000000000000000 ) ;
#127 = ORIENTED_EDGE ( 'NONE', *, *, #4, .F. ) ;
#128 = LINE ( 'NONE', #316, #369 ) ;
#129 = CARTESIAN_POINT ( 'NONE',  ( 100.0000000000000000, 3.000000000000000000, -75.00000000000001400 ) ) ;
#130 = EDGE_CURVE ( 'NONE', #303, #224, #128, .T. ) ;
#131 = SHAPE_REPRESENTATION ( '000197T1_Standard', ( #201 ), #181 ) ;
#132 = DIRECTION ( 'NONE',  ( 0.0000000000000000000, -0.0000000000000000000, 1.000000000000000000 ) ) ;
#133 = EDGE_CURVE ( 'NONE', #161, #43, #141, .T. ) ;
#134 = DIRECTION ( 'NONE',  ( -0.0000000000000000000, -1.000000000000000000, -0.0000000000000000000 ) ) ;
#135 = ORIENTED_EDGE ( 'NONE', *, *, #168, .F. ) ;
#136 = PRODUCT ( '6290130', '6290130', '', ( #250 ) ) ;
#137 = CARTESIAN_POINT ( 'NONE',  ( 90.00000000000001400, 3.000000000000000000, 84.99999999999998600 ) ) ;
#138 = PRODUCT_DEFINITION_FORMATION_WITH_SPECIFIED_SOURCE ( 'ANY', '', #166, .NOT_KNOWN. ) ;
#139 = APPLICATION_PROTOCOL_DEFINITION ( 'draft international standard', 'automotive_design', 1998, #296 ) ;
#140 = ORIENTED_EDGE ( 'NONE', *, *, #119, .F. ) ;
#141 = LINE ( 'NONE', #177, #272 ) ;
#142 = DIRECTION ( 'NONE',  ( 0.0000000000000000000, 0.0000000000000000000, 1.000000000000000000 ) ) ;
#143 =( NAMED_UNIT ( * ) PLANE_ANGLE_UNIT ( ) SI_UNIT ( $, .RADIAN. ) );
#144 = EDGE_CURVE ( 'NONE', #75, #24, #281, .T. ) ;
#145 = CARTESIAN_POINT ( 'NONE',  ( -90.00000000000001400, 0.0000000000000000000, -75.00000000000001400 ) ) ;
#146 = AXIS2_PLACEMENT_3D ( 'NONE', #120, #125, #261 ) ;
#147 = ADVANCED_FACE ( 'NONE', ( #196 ), #259, .T. ) ;
#148 = DIRECTION ( 'NONE',  ( -1.000000000000000000, 0.0000000000000000000, -0.0000000000000000000 ) ) ;
#149 = ORIENTED_EDGE ( 'NONE', *, *, #327, .T. ) ;
#150 = VERTEX_POINT ( 'NONE', #208 ) ;
#151 = LINE ( 'NONE', #297, #192 ) ;
#152 = DIRECTION ( 'NONE',  ( 0.0000000000000000000, 0.0000000000000000000, 1.000000000000000000 ) ) ;
#153 = ADVANCED_FACE ( 'NONE', ( #49 ), #109, .T. ) ;
#154 = CARTESIAN_POINT ( 'NONE',  ( 90.00000000000001400, 3.000000000000000000, -75.00000000000001400 ) ) ;
#155 = EDGE_LOOP ( 'NONE', ( #326, #2, #60, #111 ) ) ;
#156 = CARTESIAN_POINT ( 'NONE',  ( -90.00000000000001400, 0.0000000000000000000, 85.00000000000000000 ) ) ;
#157 = PRODUCT_RELATED_PRODUCT_CATEGORY ( 'part', '', ( #166 ) ) ;
#158 = LINE ( 'NONE', #137, #53 ) ;
#159 = CARTESIAN_POINT ( 'NONE',  ( 90.00000000000001400, 3.000000000000000000, 84.99999999999998600 ) ) ;
#160 = CARTESIAN_POINT ( 'NONE',  ( -99.99999999999998600, 3.000000000000000000, -75.00000000000001400 ) ) ;
#161 = VERTEX_POINT ( 'NONE', #41 ) ;
#162 = COLOUR_RGB ( '',0.4823529411764706000, 0.4901960784313725300, 0.4941176470588235500 ) ;
#163 = DIRECTION ( 'NONE',  ( -1.000000000000000000, 0.0000000000000000000, 0.0000000000000000000 ) ) ;
#164 = AXIS2_PLACEMENT_3D ( 'NONE', #236, #73, #271 ) ;
#165 = DIRECTION ( 'NONE',  ( -0.0000000000000000000, -1.000000000000000000, -0.0000000000000000000 ) ) ;
#166 = PRODUCT ( '000197T1_Standard', '000197T1_Standard', '', ( #313 ) ) ;
#167 = ORIENTED_EDGE ( 'NONE', *, *, #197, .F. ) ;
#168 = EDGE_CURVE ( 'NONE', #161, #150, #346, .T. ) ;
#169 = VECTOR ( 'NONE', #185, 1000.000000000000000 ) ;
#170 = DIRECTION ( 'NONE',  ( 0.0000000000000000000, 0.0000000000000000000, 1.000000000000000000 ) ) ;
#171 = ORIENTED_EDGE ( 'NONE', *, *, #353, .T. ) ;
#172 = EDGE_LOOP ( 'NONE', ( #149, #217, #127, #280 ) ) ;
#173 = ORIENTED_EDGE ( 'NONE', *, *, #327, .F. ) ;
#174 = CARTESIAN_POINT ( 'NONE',  ( -90.00000000000001400, 3.000000000000000000, 85.00000000000000000 ) ) ;
#175 = EDGE_LOOP ( 'NONE', ( #72, #16, #135, #371 ) ) ;
#176 = CIRCLE ( 'NONE', #274, 9.999999999999980500 ) ;
#177 = CARTESIAN_POINT ( 'NONE',  ( 90.00000000000001400, 3.000000000000000000, -85.00000000000000000 ) ) ;
#178 = AXIS2_PLACEMENT_3D ( 'NONE', #36, #37, #302 ) ;
#179 = DIRECTION ( 'NONE',  ( 0.0000000000000000000, 1.000000000000000000, -0.0000000000000000000 ) ) ;
#180 = DIRECTION ( 'NONE',  ( 0.0000000000000000000, 0.0000000000000000000, -1.000000000000000000 ) ) ;
#181 =( GEOMETRIC_REPRESENTATION_CONTEXT ( 3 ) GLOBAL_UNCERTAINTY_ASSIGNED_CONTEXT ( ( #219 ) ) GLOBAL_UNIT_ASSIGNED_CONTEXT ( ( #97, #184, #282 ) ) REPRESENTATION_CONTEXT ( 'NONE', 'WORKASPACE' ) );
#182 = ORIENTED_EDGE ( 'NONE', *, *, #322, .F. ) ;
#183 = PRODUCT_DEFINITION_CONTEXT ( 'detailed design', #114, 'design' ) ;
#184 =( NAMED_UNIT ( * ) PLANE_ANGLE_UNIT ( ) SI_UNIT ( $, .RADIAN. ) );
#185 = DIRECTION ( 'NONE',  ( 1.000000000000000000, 0.0000000000000000000, 0.0000000000000000000 ) ) ;
#186 = CARTESIAN_POINT ( 'NONE',  ( 0.0000000000000000000, 0.0000000000000000000, 0.0000000000000000000 ) ) ;
#187 = CARTESIAN_POINT ( 'NONE',  ( -100.0000000000000000, 3.000000000000000000, 75.00000000000001400 ) ) ;
#188 = DIRECTION ( 'NONE',  ( 1.000000000000000000, 0.0000000000000000000, -0.0000000000000000000 ) ) ;
#189 = LINE ( 'NONE', #213, #355 ) ;
#190 = DIRECTION ( 'NONE',  ( -1.000000000000000000, -0.0000000000000000000, -0.0000000000000000000 ) ) ;
#191 = ORIENTED_EDGE ( 'NONE', *, *, #32, .F. ) ;
#192 = VECTOR ( 'NONE', #266, 1000.000000000000000 ) ;
#193 = DIRECTION ( 'NONE',  ( 0.0000000000000000000, 0.0000000000000000000, 1.000000000000000000 ) ) ;
#194 = EDGE_LOOP ( 'NONE', ( #98, #228, #317, #3 ) ) ;
#195 = APPLICATION_PROTOCOL_DEFINITION ( 'draft international standard', 'automotive_design', 1998, #114 ) ;
#196 = FACE_OUTER_BOUND ( 'NONE', #278, .T. ) ;
#197 = EDGE_CURVE ( 'NONE', #43, #66, #189, .T. ) ;
#198 = CARTESIAN_POINT ( 'NONE',  ( 99.99999999999998600, 0.0000000000000000000, 75.00000000000001400 ) ) ;
#199 = LINE ( 'NONE', #51, #126 ) ;
#200 = DIRECTION ( 'NONE',  ( -0.0000000000000000000, -1.000000000000000000, -0.0000000000000000000 ) ) ;
#201 = AXIS2_PLACEMENT_3D ( 'NONE', #373, #56, #247 ) ;
#202 = VERTEX_POINT ( 'NONE', #359 ) ;
#203 = ORIENTED_EDGE ( 'NONE', *, *, #4, .T. ) ;
#204 = FACE_OUTER_BOUND ( 'NONE', #20, .T. ) ;
#205 = ADVANCED_FACE ( 'NONE', ( #335 ), #102, .T. ) ;
#206 = ORIENTED_EDGE ( 'NONE', *, *, #144, .T. ) ;
#207 = DIRECTION ( 'NONE',  ( 0.0000000000000000000, 0.0000000000000000000, 1.000000000000000000 ) ) ;
#208 = CARTESIAN_POINT ( 'NONE',  ( -90.00000000000001400, 3.000000000000000000, -85.00000000000000000 ) ) ;
#209 = CARTESIAN_POINT ( 'NONE',  ( -90.00000000000001400, 0.0000000000000000000, -85.00000000000000000 ) ) ;
#210 = CARTESIAN_POINT ( 'NONE',  ( 99.99999999999998600, 3.000000000000000000, -75.00000000000001400 ) ) ;
#211 = CIRCLE ( 'NONE', #221, 9.999999999999980500 ) ;
#212 = DIRECTION ( 'NONE',  ( 0.0000000000000000000, 1.000000000000000000, 0.0000000000000000000 ) ) ;
#213 = CARTESIAN_POINT ( 'NONE',  ( -90.00000000000001400, 0.0000000000000000000, -85.00000000000000000 ) ) ;
#214 = ORIENTED_EDGE ( 'NONE', *, *, #249, .F. ) ;
#215 = PRESENTATION_STYLE_ASSIGNMENT (( #68 ) ) ;
#216 = STYLED_ITEM ( 'NONE', ( #304 ), #287 ) ;
#217 = ORIENTED_EDGE ( 'NONE', *, *, #26, .F. ) ;
#218 = ORIENTED_EDGE ( 'NONE', *, *, #293, .F. ) ;
#219 = UNCERTAINTY_MEASURE_WITH_UNIT (LENGTH_MEASURE( 1.000000000000000100E-005 ), #97, 'distance_accuracy_value', 'NONE');
#220 = APPLICATION_CONTEXT ( 'automotive_design' ) ;
#221 = AXIS2_PLACEMENT_3D ( 'NONE', #59, #347, #152 ) ;
#222 = SURFACE_STYLE_USAGE ( .BOTH. , #283 ) ;
#223 = APPLICATION_CONTEXT ( 'automotive_design' ) ;
#224 = VERTEX_POINT ( 'NONE', #31 ) ;
#225 = VECTOR ( 'NONE', #193, 1000.000000000000000 ) ;
#226 = CIRCLE ( 'NONE', #308, 9.999999999999980500 ) ;
#227 = DIRECTION ( 'NONE',  ( -0.0000000000000000000, -1.000000000000000000, -0.0000000000000000000 ) ) ;
#228 = ORIENTED_EDGE ( 'NONE', *, *, #130, .F. ) ;
#229 = LINE ( 'NONE', #156, #169 ) ;
#230 = PLANE ( 'NONE',  #372 ) ;
#231 = CARTESIAN_POINT ( 'NONE',  ( -90.00000000000001400, 3.000000000000000000, -75.00000000000001400 ) ) ;
#232 = PRESENTATION_LAYER_ASSIGNMENT (  '', '', ( #216 ) ) ;
#233 = ORIENTED_EDGE ( 'NONE', *, *, #293, .T. ) ;
#234 = CARTESIAN_POINT ( 'NONE',  ( -90.00000000000001400, 3.000000000000000000, 85.00000000000000000 ) ) ;
#235 = FILL_AREA_STYLE ('',( #361 ) ) ;
#236 = CARTESIAN_POINT ( 'NONE',  ( -90.00000000000001400, 3.000000000000000000, -75.00000000000001400 ) ) ;
#237 = DIRECTION ( 'NONE',  ( 0.0000000000000000000, 0.0000000000000000000, 1.000000000000000000 ) ) ;
#238 = CARTESIAN_POINT ( 'NONE',  ( -99.99999999999998600, 3.000000000000000000, -75.00000000000001400 ) ) ;
#239 = ORIENTED_EDGE ( 'NONE', *, *, #336, .F. ) ;
#240 = VECTOR ( 'NONE', #331, 1000.000000000000000 ) ;
#241 = DIRECTION ( 'NONE',  ( 0.0000000000000000000, 0.0000000000000000000, 1.000000000000000000 ) ) ;
#242 = DIRECTION ( 'NONE',  ( 0.0000000000000000000, 0.0000000000000000000, 1.000000000000000000 ) ) ;
#243 = EDGE_LOOP ( 'NONE', ( #233, #69, #255, #171 ) ) ;
#244 = ORIENTED_EDGE ( 'NONE', *, *, #133, .F. ) ;
#245 =( NAMED_UNIT ( * ) SI_UNIT ( $, .STERADIAN. ) SOLID_ANGLE_UNIT ( ) );
#246 = FACE_OUTER_BOUND ( 'NONE', #175, .T. ) ;
#247 = DIRECTION ( 'NONE',  ( 1.000000000000000000, 0.0000000000000000000, 0.0000000000000000000 ) ) ;
#248 = CARTESIAN_POINT ( 'NONE',  ( 99.99999999999998600, 3.000000000000000000, 75.00000000000001400 ) ) ;
#249 = EDGE_CURVE ( 'NONE', #202, #22, #176, .T. ) ;
#250 = PRODUCT_CONTEXT ( 'NONE', #220, 'mechanical' ) ;
#251 = ADVANCED_FACE ( 'NONE', ( #99 ), #299, .F. ) ;
#252 = VERTEX_POINT ( 'NONE', #267 ) ;
#253 = SHAPE_REPRESENTATION_RELATIONSHIP ( 'NONE' , 'NONE' ,  #131, #287 ) ;
#254 = MECHANICAL_DESIGN_GEOMETRIC_PRESENTATION_REPRESENTATION (  '', ( #216 ), #276 ) ;
#255 = ORIENTED_EDGE ( 'NONE', *, *, #367, .F. ) ;
#256 = DIRECTION ( 'NONE',  ( 0.0000000000000000000, 0.0000000000000000000, 1.000000000000000000 ) ) ;
#257 = LINE ( 'NONE', #295, #106 ) ;
#258 = ITEM_DEFINED_TRANSFORMATION ( 'NONE', 'NONE', #360,  #201 ) ;
#259 = CYLINDRICAL_SURFACE ( 'NONE', #178, 9.999999999999980500 ) ;
#260 = EDGE_CURVE ( 'NONE', #252, #303, #118, .T. ) ;
#261 = DIRECTION ( 'NONE',  ( 0.0000000000000000000, 0.0000000000000000000, -1.000000000000000000 ) ) ;
#262 = DIRECTION ( 'NONE',  ( 0.0000000000000000000, 1.000000000000000000, 0.0000000000000000000 ) ) ;
#263 = ADVANCED_FACE ( 'NONE', ( #246 ), #14, .F. ) ;
#264 = VERTEX_POINT ( 'NONE', #238 ) ;
#265 = DIRECTION ( 'NONE',  ( 1.000000000000000000, 0.0000000000000000000, 0.0000000000000000000 ) ) ;
#266 = DIRECTION ( 'NONE',  ( -0.0000000000000000000, -1.000000000000000000, -0.0000000000000000000 ) ) ;
#267 = CARTESIAN_POINT ( 'NONE',  ( 99.99999999999998600, 3.000000000000000000, 75.00000000000001400 ) ) ;
#268 = SHAPE_REPRESENTATION ( '6290130', ( #21, #360 ), #108 ) ;
#269 = CARTESIAN_POINT ( 'NONE',  ( -90.00000000000001400, 0.0000000000000000000, -75.00000000000001400 ) ) ;
#270 = AXIS2_PLACEMENT_3D ( 'NONE', #231, #123, #77 ) ;
#271 = DIRECTION ( 'NONE',  ( 0.0000000000000000000, 0.0000000000000000000, 1.000000000000000000 ) ) ;
#272 = VECTOR ( 'NONE', #134, 1000.000000000000000 ) ;
#273 = DIRECTION ( 'NONE',  ( 0.0000000000000000000, 1.000000000000000000, 0.0000000000000000000 ) ) ;
#274 = AXIS2_PLACEMENT_3D ( 'NONE', #57, #277, #237 ) ;
#275 = ORIENTED_EDGE ( 'NONE', *, *, #64, .F. ) ;
#276 =( GEOMETRIC_REPRESENTATION_CONTEXT ( 3 ) GLOBAL_UNCERTAINTY_ASSIGNED_CONTEXT ( ( #362 ) ) GLOBAL_UNIT_ASSIGNED_CONTEXT ( ( #309, #107, #58 ) ) REPRESENTATION_CONTEXT ( 'NONE', 'WORKASPACE' ) );
#277 = DIRECTION ( 'NONE',  ( 0.0000000000000000000, 1.000000000000000000, 0.0000000000000000000 ) ) ;
#278 = EDGE_LOOP ( 'NONE', ( #343, #244, #140, #357 ) ) ;
#279 =( NAMED_UNIT ( * ) PLANE_ANGLE_UNIT ( ) SI_UNIT ( $, .RADIAN. ) );
#280 = ORIENTED_EDGE ( 'NONE', *, *, #338, .T. ) ;
#281 = CIRCLE ( 'NONE', #67, 9.999999999999980500 ) ;
#282 =( NAMED_UNIT ( * ) SI_UNIT ( $, .STERADIAN. ) SOLID_ANGLE_UNIT ( ) );
#283 = SURFACE_SIDE_STYLE ('',( #13 ) ) ;
#284 = EDGE_CURVE ( 'NONE', #24, #22, #25, .T. ) ;
#285 = ORIENTED_EDGE ( 'NONE', *, *, #8, .T. ) ;
#286 = AXIS2_PLACEMENT_3D ( 'NONE', #30, #262, #207 ) ;
#287 = ADVANCED_BREP_SHAPE_REPRESENTATION ( '', ( #333, #201 ), #181 ) ;
#288 = FACE_OUTER_BOUND ( 'NONE', #172, .T. ) ;
#289 = DIRECTION ( 'NONE',  ( -1.000000000000000000, -0.0000000000000000000, -0.0000000000000000000 ) ) ;
#290 = ORIENTED_EDGE ( 'NONE', *, *, #260, .T. ) ;
#291 = SURFACE_STYLE_FILL_AREA ( #235 ) ;
#292 = CARTESIAN_POINT ( 'NONE',  ( 99.99999999999998600, 3.000000000000000000, -75.00000000000001400 ) ) ;
#293 = EDGE_CURVE ( 'NONE', #66, #374, #89, .T. ) ;
#294 = ADVANCED_FACE ( 'NONE', ( #17 ), #83, .T. ) ;
#295 = CARTESIAN_POINT ( 'NONE',  ( -100.0000000000000000, 3.000000000000000000, 75.00000000000001400 ) ) ;
#296 = APPLICATION_CONTEXT ( 'automotive_design' ) ;
#297 = CARTESIAN_POINT ( 'NONE',  ( -99.99999999999998600, 3.000000000000000000, -75.00000000000001400 ) ) ;
#298 = CLOSED_SHELL ( 'NONE', ( #153, #39, #294, #112, #122, #321, #147, #263, #205, #251 ) ) ;
#299 = PLANE ( 'NONE',  #5 ) ;
#300 = CIRCLE ( 'NONE', #286, 9.999999999999980500 ) ;
#301 = LINE ( 'NONE', #248, #76 ) ;
#302 = DIRECTION ( 'NONE',  ( 0.0000000000000000000, 0.0000000000000000000, -1.000000000000000000 ) ) ;
#303 = VERTEX_POINT ( 'NONE', #129 ) ;
#304 = PRESENTATION_STYLE_ASSIGNMENT (( #222 ) ) ;
#305 = AXIS2_PLACEMENT_3D ( 'NONE', #323, #165, #180 ) ;
#306 = FACE_OUTER_BOUND ( 'NONE', #194, .T. ) ;
#307 = CARTESIAN_POINT ( 'NONE',  ( 99.99999999999998600, 0.0000000000000000000, -75.00000000000001400 ) ) ;
#308 = AXIS2_PLACEMENT_3D ( 'NONE', #10, #179, #320 ) ;
#309 =( LENGTH_UNIT ( ) NAMED_UNIT ( * ) SI_UNIT ( .MILLI., .METRE. ) );
#310 = CARTESIAN_POINT ( 'NONE',  ( 0.0000000000000000000, 0.0000000000000000000, 0.0000000000000000000 ) ) ;
#311 = VERTEX_POINT ( 'NONE', #334 ) ;
#312 = ORIENTED_EDGE ( 'NONE', *, *, #8, .F. ) ;
#313 = PRODUCT_CONTEXT ( 'NONE', #223, 'mechanical' ) ;
#314 = PLANE ( 'NONE',  #50 ) ;
#315 =( GEOMETRIC_REPRESENTATION_CONTEXT ( 3 ) GLOBAL_UNCERTAINTY_ASSIGNED_CONTEXT ( ( #88 ) ) GLOBAL_UNIT_ASSIGNED_CONTEXT ( ( #45, #143, #96 ) ) REPRESENTATION_CONTEXT ( 'NONE', 'WORKASPACE' ) );
#316 = CARTESIAN_POINT ( 'NONE',  ( 100.0000000000000000, 3.000000000000000000, -75.00000000000001400 ) ) ;
#317 = ORIENTED_EDGE ( 'NONE', *, *, #260, .F. ) ;
#318 = VECTOR ( 'NONE', #200, 1000.000000000000000 ) ;
#319 = CARTESIAN_POINT ( 'NONE',  ( 90.00000000000001400, 0.0000000000000000000, -85.00000000000000000 ) ) ;
#320 = DIRECTION ( 'NONE',  ( 0.0000000000000000000, 0.0000000000000000000, -1.000000000000000000 ) ) ;
#321 = ADVANCED_FACE ( 'NONE', ( #306 ), #230, .F. ) ;
#322 = EDGE_CURVE ( 'NONE', #22, #311, #229, .T. ) ;
#323 = CARTESIAN_POINT ( 'NONE',  ( 90.00000000000001400, 3.000000000000000000, 75.00000000000001400 ) ) ;
#324 = ORIENTED_EDGE ( 'NONE', *, *, #284, .T. ) ;
#325 = ORIENTED_EDGE ( 'NONE', *, *, #322, .T. ) ;
#326 = ORIENTED_EDGE ( 'NONE', *, *, #249, .T. ) ;
#327 = EDGE_CURVE ( 'NONE', #374, #202, #9, .T. ) ;
#328 = PRODUCT_DEFINITION_CONTEXT ( 'detailed design', #296, 'design' ) ;
#329 = DIRECTION ( 'NONE',  ( -0.0000000000000000000, -1.000000000000000000, -0.0000000000000000000 ) ) ;
#330 = CARTESIAN_POINT ( 'NONE',  ( -99.99999999999998600, 0.0000000000000000000, -75.00000000000001400 ) ) ;
#331 = DIRECTION ( 'NONE',  ( -0.0000000000000000000, -0.0000000000000000000, -1.000000000000000000 ) ) ;
#332 = EDGE_CURVE ( 'NONE', #252, #121, #301, .T. ) ;
#333 = MANIFOLD_SOLID_BREP ( 'Linear austragen1', #298 ) ;
#334 = CARTESIAN_POINT ( 'NONE',  ( 90.00000000000001400, 0.0000000000000000000, 84.99999999999998600 ) ) ;
#335 = FACE_OUTER_BOUND ( 'NONE', #87, .T. ) ;
#336 = EDGE_CURVE ( 'NONE', #121, #224, #52, .T. ) ;
#337 = CARTESIAN_POINT ( 'NONE',  ( -90.00000000000001400, 3.000000000000000000, 85.00000000000000000 ) ) ;
#338 = EDGE_CURVE ( 'NONE', #264, #374, #151, .T. ) ;
#339 = LINE ( 'NONE', #160, #92 ) ;
#340 = ORIENTED_EDGE ( 'NONE', *, *, #168, .T. ) ;
#341 = AXIS2_PLACEMENT_3D ( 'NONE', #310, #370, #27 ) ;
#342 = MECHANICAL_DESIGN_GEOMETRIC_PRESENTATION_REPRESENTATION (  '', ( #103 ), #315 ) ;
#343 = ORIENTED_EDGE ( 'NONE', *, *, #15, .T. ) ;
#344 = SHAPE_DEFINITION_REPRESENTATION ( #351, #131 ) ;
#345 = APPLICATION_PROTOCOL_DEFINITION ( 'draft international standard', 'automotive_design', 1998, #220 ) ;
#346 = LINE ( 'NONE', #91, #34 ) ;
#347 = DIRECTION ( 'NONE',  ( 0.0000000000000000000, 1.000000000000000000, 0.0000000000000000000 ) ) ;
#348 = AXIS2_PLACEMENT_3D ( 'NONE', #154, #358, #368 ) ;
#349 = ORIENTED_EDGE ( 'NONE', *, *, #62, .F. ) ;
#350 = VECTOR ( 'NONE', #124, 1000.000000000000000 ) ;
#351 = PRODUCT_DEFINITION_SHAPE ( 'NONE', 'NONE',  #44 ) ;
#352 =( REPRESENTATION_RELATIONSHIP ('NONE','NONE', #268, #131 ) REPRESENTATION_RELATIONSHIP_WITH_TRANSFORMATION ( #258 )SHAPE_REPRESENTATION_RELATIONSHIP( ) );
#353 = EDGE_CURVE ( 'NONE', #150, #66, #375, .T. ) ;
#354 = PRESENTATION_LAYER_ASSIGNMENT (  '', '', ( #103 ) ) ;
#355 = VECTOR ( 'NONE', #190, 1000.000000000000000 ) ;
#356 = DIRECTION ( 'NONE',  ( 1.000000000000000000, 0.0000000000000000000, 0.0000000000000000000 ) ) ;
#357 = ORIENTED_EDGE ( 'NONE', *, *, #130, .T. ) ;
#358 = DIRECTION ( 'NONE',  ( 0.0000000000000000000, 1.000000000000000000, -0.0000000000000000000 ) ) ;
#359 = CARTESIAN_POINT ( 'NONE',  ( -100.0000000000000000, 0.0000000000000000000, 75.00000000000001400 ) ) ;
#360 = AXIS2_PLACEMENT_3D ( 'NONE', #79, #170, #376 ) ;
#361 = FILL_AREA_STYLE_COLOUR ( '', #162 ) ;
#362 = UNCERTAINTY_MEASURE_WITH_UNIT (LENGTH_MEASURE( 1.000000000000000100E-005 ), #309, 'distance_accuracy_value', 'NONE');
#363 = VERTEX_POINT ( 'NONE', #159 ) ;
#364 = CIRCLE ( 'NONE', #348, 9.999999999999980500 ) ;
#365 = AXIS2_PLACEMENT_3D ( 'NONE', #145, #90, #256 ) ;
#366 = CARTESIAN_POINT ( 'NONE',  ( -99.99999999999998600, 0.0000000000000000000, -75.00000000000001400 ) ) ;
#367 = EDGE_CURVE ( 'NONE', #150, #264, #110, .T. ) ;
#368 = DIRECTION ( 'NONE',  ( 0.0000000000000000000, 0.0000000000000000000, -1.000000000000000000 ) ) ;
#369 = VECTOR ( 'NONE', #227, 1000.000000000000000 ) ;
#370 = DIRECTION ( 'NONE',  ( 0.0000000000000000000, 0.0000000000000000000, 1.000000000000000000 ) ) ;
#371 = ORIENTED_EDGE ( 'NONE', *, *, #133, .T. ) ;
#372 = AXIS2_PLACEMENT_3D ( 'NONE', #292, #163, #100 ) ;
#373 = CARTESIAN_POINT ( 'NONE',  ( 0.0000000000000000000, 0.0000000000000000000, 0.0000000000000000000 ) ) ;
#374 = VERTEX_POINT ( 'NONE', #330 ) ;
#375 = LINE ( 'NONE', #94, #40 ) ;
#376 = DIRECTION ( 'NONE',  ( 1.000000000000000000, 0.0000000000000000000, 0.0000000000000000000 ) ) ;
#377 = DIRECTION ( 'NONE',  ( 0.0000000000000000000, 0.0000000000000000000, 1.000000000000000000 ) ) ;
#378 = PRODUCT_DEFINITION_SHAPE ( 'NONE', 'NONE',  #80 ) ;
#379 = NEXT_ASSEMBLY_USAGE_OCCURRENCE ( 'NAUO1', ' ', ' ', #80, #44, $ ) ;
ENDSEC;
END-ISO-10303-21;
