ISO-10303-21;
HEADER;
FILE_DESCRIPTION (( 'STEP AP214' ),
    '1' );
FILE_NAME ('6290120.stp',
    '2016-06-22T06:03:17',
    ( '' ),
    ( '' ),
    'SwSTEP 2.0',
    'SolidWorks 2014',
    '' );
FILE_SCHEMA (( 'AUTOMOTIVE_DESIGN' ));
ENDSEC;

DATA;
#1 = PLANE ( 'NONE',  #19 ) ;
#2 = ORIENTED_EDGE ( 'NONE', *, *, #130, .F. ) ;
#3 = CARTESIAN_POINT ( 'NONE',  ( -40.50000000000001400, -3.000000000000000000, 61.99999999999999300 ) ) ;
#4 = ADVANCED_BREP_SHAPE_REPRESENTATION ( '', ( #199, #77 ), #41 ) ;
#5 = ADVANCED_FACE ( 'NONE', ( #193 ), #114, .T. ) ;
#6 = PRODUCT_DEFINITION_SHAPE ( 'NONE', 'NONE',  #112 ) ;
#7 =( NAMED_UNIT ( * ) PLANE_ANGLE_UNIT ( ) SI_UNIT ( $, .RADIAN. ) );
#8 = ADVANCED_FACE ( 'NONE', ( #53 ), #95, .T. ) ;
#9 = VERTEX_POINT ( 'NONE', #142 ) ;
#10 = CARTESIAN_POINT ( 'NONE',  ( -40.50000000000000000, 0.0000000000000000000, -61.99999999999997900 ) ) ;
#11 = APPLICATION_PROTOCOL_DEFINITION ( 'draft international standard', 'automotive_design', 1998, #88 ) ;
#12 = DIRECTION ( 'NONE',  ( 0.0000000000000000000, 0.0000000000000000000, -1.000000000000000000 ) ) ;
#13 = DIRECTION ( 'NONE',  ( 0.0000000000000000000, 0.0000000000000000000, 1.000000000000000000 ) ) ;
#14 = DIRECTION ( 'NONE',  ( 0.0000000000000000000, -0.0000000000000000000, -1.000000000000000000 ) ) ;
#15 =( GEOMETRIC_REPRESENTATION_CONTEXT ( 3 ) GLOBAL_UNCERTAINTY_ASSIGNED_CONTEXT ( ( #214 ) ) GLOBAL_UNIT_ASSIGNED_CONTEXT ( ( #138, #7, #185 ) ) REPRESENTATION_CONTEXT ( 'NONE', 'WORKASPACE' ) );
#16 = VERTEX_POINT ( 'NONE', #99 ) ;
#17 = ORIENTED_EDGE ( 'NONE', *, *, #210, .F. ) ;
#18 = ORIENTED_EDGE ( 'NONE', *, *, #210, .T. ) ;
#19 = AXIS2_PLACEMENT_3D ( 'NONE', #23, #83, #163 ) ;
#20 = AXIS2_PLACEMENT_3D ( 'NONE', #241, #122, #192 ) ;
#21 = CARTESIAN_POINT ( 'NONE',  ( -40.50000000000001400, 0.0000000000000000000, -1.387778780781445700E-014 ) ) ;
#22 = ORIENTED_EDGE ( 'NONE', *, *, #157, .F. ) ;
#23 = CARTESIAN_POINT ( 'NONE',  ( 40.50000000000001400, -3.000000000000000000, -1.387778780781445700E-014 ) ) ;
#24 = DIRECTION ( 'NONE',  ( 0.0000000000000000000, 0.0000000000000000000, 1.000000000000000000 ) ) ;
#25 = SURFACE_STYLE_USAGE ( .BOTH. , #211 ) ;
#26 =( LENGTH_UNIT ( ) NAMED_UNIT ( * ) SI_UNIT ( .MILLI., .METRE. ) );
#27 = EDGE_LOOP ( 'NONE', ( #207, #22, #103, #216 ) ) ;
#28 = DIRECTION ( 'NONE',  ( 0.0000000000000000000, 1.000000000000000000, 0.0000000000000000000 ) ) ;
#29 = PLANE ( 'NONE',  #46 ) ;
#30 = AXIS2_PLACEMENT_3D ( 'NONE', #154, #64, #62 ) ;
#31 = AXIS2_PLACEMENT_3D ( 'NONE', #21, #98, #104 ) ;
#32 = AXIS2_PLACEMENT_3D ( 'NONE', #80, #85, #89 ) ;
#33 =( LENGTH_UNIT ( ) NAMED_UNIT ( * ) SI_UNIT ( .MILLI., .METRE. ) );
#34 = CARTESIAN_POINT ( 'NONE',  ( -40.50000000000000000, -3.000000000000000000, -61.99999999999997900 ) ) ;
#35 = ORIENTED_EDGE ( 'NONE', *, *, #174, .T. ) ;
#36 = ORIENTED_EDGE ( 'NONE', *, *, #52, .F. ) ;
#37 = DIRECTION ( 'NONE',  ( 0.0000000000000000000, 1.000000000000000000, 0.0000000000000000000 ) ) ;
#38 = ORIENTED_EDGE ( 'NONE', *, *, #230, .F. ) ;
#39 = ORIENTED_EDGE ( 'NONE', *, *, #55, .F. ) ;
#40 = ORIENTED_EDGE ( 'NONE', *, *, #149, .T. ) ;
#41 =( GEOMETRIC_REPRESENTATION_CONTEXT ( 3 ) GLOBAL_UNCERTAINTY_ASSIGNED_CONTEXT ( ( #76 ) ) GLOBAL_UNIT_ASSIGNED_CONTEXT ( ( #33, #158, #65 ) ) REPRESENTATION_CONTEXT ( 'NONE', 'WORKASPACE' ) );
#42 = DIRECTION ( 'NONE',  ( 1.000000000000000000, 0.0000000000000000000, 0.0000000000000000000 ) ) ;
#43 = ORIENTED_EDGE ( 'NONE', *, *, #102, .T. ) ;
#44 = DIRECTION ( 'NONE',  ( 0.0000000000000000000, 0.0000000000000000000, 1.000000000000000000 ) ) ;
#45 =( NAMED_UNIT ( * ) SI_UNIT ( $, .STERADIAN. ) SOLID_ANGLE_UNIT ( ) );
#46 = AXIS2_PLACEMENT_3D ( 'NONE', #135, #221, #14 ) ;
#47 = DIRECTION ( 'NONE',  ( 1.000000000000000000, 0.0000000000000000000, -0.0000000000000000000 ) ) ;
#48 = VERTEX_POINT ( 'NONE', #3 ) ;
#49 = ORIENTED_EDGE ( 'NONE', *, *, #79, .F. ) ;
#50 = EDGE_LOOP ( 'NONE', ( #38, #2, #43, #81 ) ) ;
#51 =( LENGTH_UNIT ( ) NAMED_UNIT ( * ) SI_UNIT ( .MILLI., .METRE. ) );
#52 = EDGE_CURVE ( 'NONE', #9, #48, #94, .T. ) ;
#53 = FACE_OUTER_BOUND ( 'NONE', #72, .T. ) ;
#54 = ORIENTED_EDGE ( 'NONE', *, *, #130, .T. ) ;
#55 = EDGE_CURVE ( 'NONE', #226, #16, #93, .T. ) ;
#56 = ORIENTED_EDGE ( 'NONE', *, *, #157, .T. ) ;
#57 = PRESENTATION_LAYER_ASSIGNMENT (  '', '', ( #233 ) ) ;
#58 = EDGE_LOOP ( 'NONE', ( #232, #40, #35, #92 ) ) ;
#59 = ADVANCED_FACE ( 'NONE', ( #121 ), #1, .T. ) ;
#60 = VERTEX_POINT ( 'NONE', #222 ) ;
#61 = ORIENTED_EDGE ( 'NONE', *, *, #52, .T. ) ;
#62 = DIRECTION ( 'NONE',  ( 0.0000000000000000000, 0.0000000000000000000, 1.000000000000000000 ) ) ;
#63 = CLOSED_SHELL ( 'NONE', ( #8, #159, #235, #5, #59, #148 ) ) ;
#64 = DIRECTION ( 'NONE',  ( 0.0000000000000000000, 1.000000000000000000, 0.0000000000000000000 ) ) ;
#65 =( NAMED_UNIT ( * ) SI_UNIT ( $, .STERADIAN. ) SOLID_ANGLE_UNIT ( ) );
#66 = CARTESIAN_POINT ( 'NONE',  ( 40.50000000000001400, -3.000000000000000000, 61.99999999999999300 ) ) ;
#67 = ORIENTED_EDGE ( 'NONE', *, *, #174, .F. ) ;
#68 = CARTESIAN_POINT ( 'NONE',  ( -40.50000000000000700, -3.000000000000000000, -62.00000000000000000 ) ) ;
#69 = EDGE_CURVE ( 'NONE', #229, #226, #109, .T. ) ;
#70 = CARTESIAN_POINT ( 'NONE',  ( 0.0000000000000000000, 0.0000000000000000000, 0.0000000000000000000 ) ) ;
#71 = PRESENTATION_LAYER_ASSIGNMENT (  '', '', ( #172 ) ) ;
#72 = EDGE_LOOP ( 'NONE', ( #39, #106, #18, #56 ) ) ;
#73 = EDGE_LOOP ( 'NONE', ( #17, #129, #36, #212 ) ) ;
#74 = PLANE ( 'NONE',  #120 ) ;
#75 =( NAMED_UNIT ( * ) PLANE_ANGLE_UNIT ( ) SI_UNIT ( $, .RADIAN. ) );
#76 = UNCERTAINTY_MEASURE_WITH_UNIT (LENGTH_MEASURE( 1.000000000000000100E-005 ), #33, 'distance_accuracy_value', 'NONE');
#77 = AXIS2_PLACEMENT_3D ( 'NONE', #218, #198, #155 ) ;
#78 = CARTESIAN_POINT ( 'NONE',  ( 40.50000000000001400, 0.0000000000000000000, 61.99999999999999300 ) ) ;
#79 = EDGE_CURVE ( 'NONE', #9, #225, #195, .T. ) ;
#80 = CARTESIAN_POINT ( 'NONE',  ( -40.50000000000000000, -3.000000000000000000, -61.99999999999997900 ) ) ;
#81 = ORIENTED_EDGE ( 'NONE', *, *, #69, .T. ) ;
#82 = LINE ( 'NONE', #215, #191 ) ;
#83 = DIRECTION ( 'NONE',  ( 0.0000000000000000000, -1.000000000000000000, 0.0000000000000000000 ) ) ;
#84 = PRODUCT_DEFINITION ( 'UNKNOWN', '', #119, #136 ) ;
#85 = DIRECTION ( 'NONE',  ( 0.0000000000000000000, 0.0000000000000000000, -1.000000000000000000 ) ) ;
#86 = APPLICATION_PROTOCOL_DEFINITION ( 'draft international standard', 'automotive_design', 1998, #108 ) ;
#87 = AXIS2_PLACEMENT_3D ( 'NONE', #131, #197, #143 ) ;
#88 = APPLICATION_CONTEXT ( 'automotive_design' ) ;
#89 = DIRECTION ( 'NONE',  ( -1.000000000000000000, 0.0000000000000000000, -0.0000000000000000000 ) ) ;
#90 = CARTESIAN_POINT ( 'NONE',  ( -40.50000000000001400, -3.000000000000000000, 61.99999999999999300 ) ) ;
#91 =( GEOMETRIC_REPRESENTATION_CONTEXT ( 3 ) GLOBAL_UNCERTAINTY_ASSIGNED_CONTEXT ( ( #117 ) ) GLOBAL_UNIT_ASSIGNED_CONTEXT ( ( #51, #208, #45 ) ) REPRESENTATION_CONTEXT ( 'NONE', 'WORKASPACE' ) );
#92 = ORIENTED_EDGE ( 'NONE', *, *, #230, .T. ) ;
#93 = CIRCLE ( 'NONE', #137, 61.99999999999998600 ) ;
#94 = CIRCLE ( 'NONE', #20, 61.99999999999998600 ) ;
#95 = CYLINDRICAL_SURFACE ( 'NONE', #30, 61.99999999999998600 ) ;
#96 =( NAMED_UNIT ( * ) SI_UNIT ( $, .STERADIAN. ) SOLID_ANGLE_UNIT ( ) );
#97 = SHAPE_REPRESENTATION ( '000255T1_Standard', ( #77 ), #41 ) ;
#98 = DIRECTION ( 'NONE',  ( 0.0000000000000000000, 1.000000000000000000, 0.0000000000000000000 ) ) ;
#99 = CARTESIAN_POINT ( 'NONE',  ( 40.50000000000000000, 0.0000000000000000000, -61.99999999999997900 ) ) ;
#100 = LINE ( 'NONE', #34, #176 ) ;
#101 = FACE_OUTER_BOUND ( 'NONE', #107, .T. ) ;
#102 = EDGE_CURVE ( 'NONE', #48, #229, #82, .T. ) ;
#103 = ORIENTED_EDGE ( 'NONE', *, *, #203, .T. ) ;
#104 = DIRECTION ( 'NONE',  ( 0.0000000000000000000, 0.0000000000000000000, 1.000000000000000000 ) ) ;
#105 = PRODUCT_CONTEXT ( 'NONE', #88, 'mechanical' ) ;
#106 = ORIENTED_EDGE ( 'NONE', *, *, #69, .F. ) ;
#107 = EDGE_LOOP ( 'NONE', ( #67, #49, #61, #54 ) ) ;
#108 = APPLICATION_CONTEXT ( 'automotive_design' ) ;
#109 = LINE ( 'NONE', #133, #128 ) ;
#110 = VECTOR ( 'NONE', #115, 1000.000000000000000 ) ;
#111 = LINE ( 'NONE', #10, #213 ) ;
#112 = PRODUCT_DEFINITION ( 'UNKNOWN', '', #220, #116 ) ;
#113 = CIRCLE ( 'NONE', #231, 61.99999999999998600 ) ;
#114 = PLANE ( 'NONE',  #32 ) ;
#115 = DIRECTION ( 'NONE',  ( 0.0000000000000000000, 1.000000000000000000, 0.0000000000000000000 ) ) ;
#116 = PRODUCT_DEFINITION_CONTEXT ( 'detailed design', #108, 'design' ) ;
#117 = UNCERTAINTY_MEASURE_WITH_UNIT (LENGTH_MEASURE( 1.000000000000000100E-005 ), #51, 'distance_accuracy_value', 'NONE');
#118 = DIRECTION ( 'NONE',  ( -1.000000000000000000, -0.0000000000000000000, -0.0000000000000000000 ) ) ;
#119 = PRODUCT_DEFINITION_FORMATION_WITH_SPECIFIED_SOURCE ( 'ANY', '', #179, .NOT_KNOWN. ) ;
#120 = AXIS2_PLACEMENT_3D ( 'NONE', #90, #184, #47 ) ;
#121 = FACE_OUTER_BOUND ( 'NONE', #73, .T. ) ;
#122 = DIRECTION ( 'NONE',  ( 0.0000000000000000000, 1.000000000000000000, 0.0000000000000000000 ) ) ;
#123 =( GEOMETRIC_REPRESENTATION_CONTEXT ( 3 ) GLOBAL_UNCERTAINTY_ASSIGNED_CONTEXT ( ( #200 ) ) GLOBAL_UNIT_ASSIGNED_CONTEXT ( ( #26, #75, #96 ) ) REPRESENTATION_CONTEXT ( 'NONE', 'WORKASPACE' ) );
#124 = SURFACE_STYLE_USAGE ( .BOTH. , #139 ) ;
#125 = CARTESIAN_POINT ( 'NONE',  ( -40.50000000000001400, -3.000000000000000000, 61.99999999999999300 ) ) ;
#126 = DIRECTION ( 'NONE',  ( 0.0000000000000000000, 1.000000000000000000, -0.0000000000000000000 ) ) ;
#127 = MECHANICAL_DESIGN_GEOMETRIC_PRESENTATION_REPRESENTATION (  '', ( #233 ), #15 ) ;
#128 = VECTOR ( 'NONE', #196, 1000.000000000000000 ) ;
#129 = ORIENTED_EDGE ( 'NONE', *, *, #102, .F. ) ;
#130 = EDGE_CURVE ( 'NONE', #48, #60, #223, .T. ) ;
#131 = CARTESIAN_POINT ( 'NONE',  ( 0.0000000000000000000, 0.0000000000000000000, 0.0000000000000000000 ) ) ;
#132 = CARTESIAN_POINT ( 'NONE',  ( 40.50000000000000000, -3.000000000000000000, -61.99999999999997900 ) ) ;
#133 = CARTESIAN_POINT ( 'NONE',  ( 40.50000000000001400, -3.000000000000000000, 61.99999999999999300 ) ) ;
#134 = AXIS2_PLACEMENT_3D ( 'NONE', #141, #28, #13 ) ;
#135 = CARTESIAN_POINT ( 'NONE',  ( 40.50000000000001400, 0.0000000000000000000, -1.387778780781445700E-014 ) ) ;
#136 = PRODUCT_DEFINITION_CONTEXT ( 'detailed design', #201, 'design' ) ;
#137 = AXIS2_PLACEMENT_3D ( 'NONE', #204, #202, #12 ) ;
#138 =( LENGTH_UNIT ( ) NAMED_UNIT ( * ) SI_UNIT ( .MILLI., .METRE. ) );
#139 = SURFACE_SIDE_STYLE ('',( #161 ) ) ;
#140 = CONTEXT_DEPENDENT_SHAPE_REPRESENTATION ( #217, #147 ) ;
#141 = CARTESIAN_POINT ( 'NONE',  ( -40.50000000000001400, -3.000000000000000000, -1.387778780781445700E-014 ) ) ;
#142 = CARTESIAN_POINT ( 'NONE',  ( -40.50000000000000700, -3.000000000000000000, -62.00000000000000000 ) ) ;
#143 = DIRECTION ( 'NONE',  ( 1.000000000000000000, 0.0000000000000000000, 0.0000000000000000000 ) ) ;
#144 = SHAPE_DEFINITION_REPRESENTATION ( #240, #206 ) ;
#145 = SHAPE_DEFINITION_REPRESENTATION ( #6, #97 ) ;
#146 = ITEM_DEFINED_TRANSFORMATION ( 'NONE', 'NONE', #239,  #77 ) ;
#147 = PRODUCT_DEFINITION_SHAPE ( 'NONE', 'NONE',  #243 ) ;
#148 = ADVANCED_FACE ( 'NONE', ( #189 ), #29, .F. ) ;
#149 = EDGE_CURVE ( 'NONE', #16, #225, #111, .T. ) ;
#150 = APPLICATION_PROTOCOL_DEFINITION ( 'draft international standard', 'automotive_design', 1998, #234 ) ;
#151 = PRODUCT_CONTEXT ( 'NONE', #234, 'mechanical' ) ;
#152 = DIRECTION ( 'NONE',  ( 1.000000000000000000, 0.0000000000000000000, 0.0000000000000000000 ) ) ;
#153 = DIRECTION ( 'NONE',  ( 0.0000000000000000000, 0.0000000000000000000, -1.000000000000000000 ) ) ;
#154 = CARTESIAN_POINT ( 'NONE',  ( 40.50000000000001400, -3.000000000000000000, -1.387778780781445700E-014 ) ) ;
#155 = DIRECTION ( 'NONE',  ( 1.000000000000000000, 0.0000000000000000000, 0.0000000000000000000 ) ) ;
#156 = PRODUCT_RELATED_PRODUCT_CATEGORY ( 'part', '', ( #179 ) ) ;
#157 = EDGE_CURVE ( 'NONE', #165, #16, #194, .T. ) ;
#158 =( NAMED_UNIT ( * ) PLANE_ANGLE_UNIT ( ) SI_UNIT ( $, .RADIAN. ) );
#159 = ADVANCED_FACE ( 'NONE', ( #188 ), #74, .T. ) ;
#160 = PRESENTATION_STYLE_ASSIGNMENT (( #124 ) ) ;
#161 = SURFACE_STYLE_FILL_AREA ( #164 ) ;
#162 = COLOUR_RGB ( '',1.000000000000000000, 1.000000000000000000, 1.000000000000000000 ) ;
#163 = DIRECTION ( 'NONE',  ( 0.0000000000000000000, -0.0000000000000000000, -1.000000000000000000 ) ) ;
#164 = FILL_AREA_STYLE ('',( #205 ) ) ;
#165 = VERTEX_POINT ( 'NONE', #132 ) ;
#166 = DIRECTION ( 'NONE',  ( 1.000000000000000000, 0.0000000000000000000, 0.0000000000000000000 ) ) ;
#167 = PRODUCT ( '000255T1_Standard', '000255T1_Standard', '', ( #151 ) ) ;
#168 = LINE ( 'NONE', #237, #169 ) ;
#169 = VECTOR ( 'NONE', #166, 1000.000000000000000 ) ;
#170 = SHAPE_REPRESENTATION_RELATIONSHIP ( 'NONE' , 'NONE' ,  #97, #4 ) ;
#171 = CYLINDRICAL_SURFACE ( 'NONE', #134, 61.99999999999998600 ) ;
#172 = STYLED_ITEM ( 'NONE', ( #182 ), #199 ) ;
#173 = APPLICATION_PROTOCOL_DEFINITION ( 'draft international standard', 'automotive_design', 1998, #201 ) ;
#174 = EDGE_CURVE ( 'NONE', #225, #60, #186, .T. ) ;
#175 = CARTESIAN_POINT ( 'NONE',  ( -40.50000000000000700, 0.0000000000000000000, -62.00000000000000000 ) ) ;
#176 = VECTOR ( 'NONE', #118, 1000.000000000000000 ) ;
#177 = CARTESIAN_POINT ( 'NONE',  ( 40.50000000000001400, -3.000000000000000000, -1.387778780781445700E-014 ) ) ;
#178 = PRODUCT_RELATED_PRODUCT_CATEGORY ( 'part', '', ( #167 ) ) ;
#179 = PRODUCT ( '6290120', '6290120', '', ( #105 ) ) ;
#180 = DIRECTION ( 'NONE',  ( -1.000000000000000000, -0.0000000000000000000, -0.0000000000000000000 ) ) ;
#181 = SURFACE_STYLE_FILL_AREA ( #238 ) ;
#182 = PRESENTATION_STYLE_ASSIGNMENT (( #25 ) ) ;
#183 = VECTOR ( 'NONE', #219, 1000.000000000000000 ) ;
#184 = DIRECTION ( 'NONE',  ( 0.0000000000000000000, 0.0000000000000000000, 1.000000000000000000 ) ) ;
#185 =( NAMED_UNIT ( * ) SI_UNIT ( $, .STERADIAN. ) SOLID_ANGLE_UNIT ( ) );
#186 = CIRCLE ( 'NONE', #31, 61.99999999999998600 ) ;
#187 = COLOUR_RGB ( '',1.000000000000000000, 1.000000000000000000, 1.000000000000000000 ) ;
#188 = FACE_OUTER_BOUND ( 'NONE', #50, .T. ) ;
#189 = FACE_OUTER_BOUND ( 'NONE', #58, .T. ) ;
#190 = VECTOR ( 'NONE', #37, 1000.000000000000000 ) ;
#191 = VECTOR ( 'NONE', #152, 1000.000000000000000 ) ;
#192 = DIRECTION ( 'NONE',  ( 0.0000000000000000000, 0.0000000000000000000, 1.000000000000000000 ) ) ;
#193 = FACE_OUTER_BOUND ( 'NONE', #27, .T. ) ;
#194 = LINE ( 'NONE', #224, #183 ) ;
#195 = LINE ( 'NONE', #68, #110 ) ;
#196 = DIRECTION ( 'NONE',  ( 0.0000000000000000000, 1.000000000000000000, 0.0000000000000000000 ) ) ;
#197 = DIRECTION ( 'NONE',  ( 0.0000000000000000000, 0.0000000000000000000, 1.000000000000000000 ) ) ;
#198 = DIRECTION ( 'NONE',  ( 0.0000000000000000000, 0.0000000000000000000, 1.000000000000000000 ) ) ;
#199 = MANIFOLD_SOLID_BREP ( 'Linear austragen1', #63 ) ;
#200 = UNCERTAINTY_MEASURE_WITH_UNIT (LENGTH_MEASURE( 1.000000000000000100E-005 ), #26, 'distance_accuracy_value', 'NONE');
#201 = APPLICATION_CONTEXT ( 'automotive_design' ) ;
#202 = DIRECTION ( 'NONE',  ( 0.0000000000000000000, 1.000000000000000000, -0.0000000000000000000 ) ) ;
#203 = EDGE_CURVE ( 'NONE', #165, #9, #100, .T. ) ;
#204 = CARTESIAN_POINT ( 'NONE',  ( 40.50000000000001400, 0.0000000000000000000, -1.387778780781445700E-014 ) ) ;
#205 = FILL_AREA_STYLE_COLOUR ( '', #162 ) ;
#206 = SHAPE_REPRESENTATION ( '6290120', ( #209, #239 ), #123 ) ;
#207 = ORIENTED_EDGE ( 'NONE', *, *, #149, .F. ) ;
#208 =( NAMED_UNIT ( * ) PLANE_ANGLE_UNIT ( ) SI_UNIT ( $, .RADIAN. ) );
#209 = AXIS2_PLACEMENT_3D ( 'NONE', #70, #44, #227 ) ;
#210 = EDGE_CURVE ( 'NONE', #229, #165, #113, .T. ) ;
#211 = SURFACE_SIDE_STYLE ('',( #181 ) ) ;
#212 = ORIENTED_EDGE ( 'NONE', *, *, #203, .F. ) ;
#213 = VECTOR ( 'NONE', #180, 1000.000000000000000 ) ;
#214 = UNCERTAINTY_MEASURE_WITH_UNIT (LENGTH_MEASURE( 1.000000000000000100E-005 ), #138, 'distance_accuracy_value', 'NONE');
#215 = CARTESIAN_POINT ( 'NONE',  ( -40.50000000000001400, -3.000000000000000000, 61.99999999999999300 ) ) ;
#216 = ORIENTED_EDGE ( 'NONE', *, *, #79, .T. ) ;
#217 =( REPRESENTATION_RELATIONSHIP ('NONE','NONE', #206, #97 ) REPRESENTATION_RELATIONSHIP_WITH_TRANSFORMATION ( #146 )SHAPE_REPRESENTATION_RELATIONSHIP( ) );
#218 = CARTESIAN_POINT ( 'NONE',  ( 0.0000000000000000000, 0.0000000000000000000, 0.0000000000000000000 ) ) ;
#219 = DIRECTION ( 'NONE',  ( 0.0000000000000000000, 1.000000000000000000, 0.0000000000000000000 ) ) ;
#220 = PRODUCT_DEFINITION_FORMATION_WITH_SPECIFIED_SOURCE ( 'ANY', '', #167, .NOT_KNOWN. ) ;
#221 = DIRECTION ( 'NONE',  ( 0.0000000000000000000, -1.000000000000000000, 0.0000000000000000000 ) ) ;
#222 = CARTESIAN_POINT ( 'NONE',  ( -40.50000000000001400, 0.0000000000000000000, 61.99999999999999300 ) ) ;
#223 = LINE ( 'NONE', #125, #190 ) ;
#224 = CARTESIAN_POINT ( 'NONE',  ( 40.50000000000000000, -3.000000000000000000, -61.99999999999997900 ) ) ;
#225 = VERTEX_POINT ( 'NONE', #175 ) ;
#226 = VERTEX_POINT ( 'NONE', #78 ) ;
#227 = DIRECTION ( 'NONE',  ( 1.000000000000000000, 0.0000000000000000000, 0.0000000000000000000 ) ) ;
#228 = FILL_AREA_STYLE_COLOUR ( '', #187 ) ;
#229 = VERTEX_POINT ( 'NONE', #66 ) ;
#230 = EDGE_CURVE ( 'NONE', #60, #226, #168, .T. ) ;
#231 = AXIS2_PLACEMENT_3D ( 'NONE', #177, #126, #153 ) ;
#232 = ORIENTED_EDGE ( 'NONE', *, *, #55, .T. ) ;
#233 = STYLED_ITEM ( 'NONE', ( #160 ), #4 ) ;
#234 = APPLICATION_CONTEXT ( 'automotive_design' ) ;
#235 = ADVANCED_FACE ( 'NONE', ( #101 ), #171, .T. ) ;
#236 = CARTESIAN_POINT ( 'NONE',  ( 0.0000000000000000000, 0.0000000000000000000, 0.0000000000000000000 ) ) ;
#237 = CARTESIAN_POINT ( 'NONE',  ( -40.50000000000001400, 0.0000000000000000000, 61.99999999999999300 ) ) ;
#238 = FILL_AREA_STYLE ('',( #228 ) ) ;
#239 = AXIS2_PLACEMENT_3D ( 'NONE', #236, #24, #42 ) ;
#240 = PRODUCT_DEFINITION_SHAPE ( 'NONE', 'NONE',  #84 ) ;
#241 = CARTESIAN_POINT ( 'NONE',  ( -40.50000000000001400, -3.000000000000000000, -1.387778780781445700E-014 ) ) ;
#242 = MECHANICAL_DESIGN_GEOMETRIC_PRESENTATION_REPRESENTATION (  '', ( #172 ), #91 ) ;
#243 = NEXT_ASSEMBLY_USAGE_OCCURRENCE ( 'NAUO1', ' ', ' ', #84, #112, $ ) ;
ENDSEC;
END-ISO-10303-21;
