ISO-10303-21;
HEADER;
FILE_DESCRIPTION (( 'STEP AP214' ),
    '1' );
FILE_NAME ('6282770.stp',
    '2016-06-20T06:50:52',
    ( '' ),
    ( '' ),
    'SwSTEP 2.0',
    'SolidWorks 2014',
    '' );
FILE_SCHEMA (( 'AUTOMOTIVE_DESIGN' ));
ENDSEC;

DATA;
#1 = VERTEX_POINT ( 'NONE', #206 ) ;
#2 = CARTESIAN_POINT ( 'NONE',  ( 0.0000000000000000000, 107.5000000000000000, -1.399999999999999900 ) ) ;
#3 = ADVANCED_FACE ( 'NONE', ( #317 ), #211, .T. ) ;
#4 = CARTESIAN_POINT ( 'NONE',  ( -75.55364821563212300, 109.4999999999999900, 0.0000000000000000000 ) ) ;
#5 = EDGE_CURVE ( 'NONE', #73, #306, #276, .T. ) ;
#6 = CARTESIAN_POINT ( 'NONE',  ( -133.0000000000000000, 12.00000000000000000, -1.399999999999999900 ) ) ;
#7 = EDGE_CURVE ( 'NONE', #182, #150, #281, .T. ) ;
#8 = DIRECTION ( 'NONE',  ( 0.0000000000000000000, -0.0000000000000000000, 1.000000000000000000 ) ) ;
#9 = EDGE_CURVE ( 'NONE', #23, #376, #280, .T. ) ;
#10 = DIRECTION ( 'NONE',  ( 0.0000000000000000000, 1.000000000000000000, 0.0000000000000000000 ) ) ;
#11 = PLANE ( 'NONE',  #85 ) ;
#12 = DIRECTION ( 'NONE',  ( -1.000000000000000000, 0.0000000000000000000, 0.0000000000000000000 ) ) ;
#13 = DIRECTION ( 'NONE',  ( 0.0000000000000000000, 0.0000000000000000000, 1.000000000000000000 ) ) ;
#14 = CARTESIAN_POINT ( 'NONE',  ( 0.0000000000000000000, 0.0000000000000000000, 0.0000000000000000000 ) ) ;
#15 = CARTESIAN_POINT ( 'NONE',  ( -2.000000000000000400, 109.5000000000000000, 0.0000000000000000000 ) ) ;
#16 = CARTESIAN_POINT ( 'NONE',  ( -2.000000000000000400, 109.5000000000000000, -1.399999999999999900 ) ) ;
#17 = CARTESIAN_POINT ( 'NONE',  ( -77.28569902320099100, 108.4999999999999900, -1.399999999999999900 ) ) ;
#18 = DIRECTION ( 'NONE',  ( -0.0000000000000000000, -0.0000000000000000000, -1.000000000000000000 ) ) ;
#19 = CARTESIAN_POINT ( 'NONE',  ( -2.000000000000001800, 0.0000000000000000000, 0.0000000000000000000 ) ) ;
#20 = CARTESIAN_POINT ( 'NONE',  ( 0.0000000000000000000, 2.000000000000000000, 0.0000000000000000000 ) ) ;
#21 = CARTESIAN_POINT ( 'NONE',  ( -2.000000000000001800, 0.0000000000000000000, -1.399999999999999900 ) ) ;
#22 = DIRECTION ( 'NONE',  ( 0.0000000000000000000, 1.000000000000000000, 0.0000000000000000000 ) ) ;
#23 = VERTEX_POINT ( 'NONE', #178 ) ;
#24 = CARTESIAN_POINT ( 'NONE',  ( -133.0000000000000000, 2.000000000000000000, 0.0000000000000000000 ) ) ;
#25 = CARTESIAN_POINT ( 'NONE',  ( 0.0000000000000000000, 0.0000000000000000000, -1.399999999999999900 ) ) ;
#26 = EDGE_CURVE ( 'NONE', #321, #351, #274, .T. ) ;
#27 = CLOSED_SHELL ( 'NONE', ( #331, #203, #386, #357, #389, #405, #3, #359, #400, #37, #373 ) ) ;
#28 = CARTESIAN_POINT ( 'NONE',  ( -2.000000000000001800, 2.000000000000000000, -1.399999999999999900 ) ) ;
#29 = DIRECTION ( 'NONE',  ( -0.0000000000000000000, -0.0000000000000000000, -1.000000000000000000 ) ) ;
#30 = DIRECTION ( 'NONE',  ( 1.000000000000000000, 0.0000000000000000000, 0.0000000000000000000 ) ) ;
#31 = PLANE ( 'NONE',  #234 ) ;
#32 = EDGE_CURVE ( 'NONE', #318, #291, #273, .T. ) ;
#33 = CARTESIAN_POINT ( 'NONE',  ( -133.0000000000000000, 0.0000000000000000000, -1.399999999999999900 ) ) ;
#34 = CARTESIAN_POINT ( 'NONE',  ( -133.0000000000000000, 12.00000000000000000, 0.0000000000000000000 ) ) ;
#35 = DIRECTION ( 'NONE',  ( 0.0000000000000000000, -1.000000000000000000, 0.0000000000000000000 ) ) ;
#36 = AXIS2_PLACEMENT_3D ( 'NONE', #70, #64, #63 ) ;
#37 = ADVANCED_FACE ( 'NONE', ( #266 ), #259, .T. ) ;
#38 = DIRECTION ( 'NONE',  ( 0.0000000000000000000, -0.0000000000000000000, -1.000000000000000000 ) ) ;
#39 = CARTESIAN_POINT ( 'NONE',  ( 0.0000000000000000000, 109.5000000000000000, 0.0000000000000000000 ) ) ;
#40 = FILL_AREA_STYLE_COLOUR ( '', #224 ) ;
#41 = EDGE_CURVE ( 'NONE', #75, #309, #260, .T. ) ;
#42 = CARTESIAN_POINT ( 'NONE',  ( -76.70834875401136800, 109.4999999999999900, -1.399999999999999900 ) ) ;
#43 = DIRECTION ( 'NONE',  ( -0.5000000000000008900, -0.8660254037844380400, 0.0000000000000000000 ) ) ;
#44 = CARTESIAN_POINT ( 'NONE',  ( -133.0000000000000000, 0.0000000000000000000, 0.0000000000000000000 ) ) ;
#45 = PRODUCT ( '6282770', '6282770', '', ( #406 ) ) ;
#46 = DIRECTION ( 'NONE',  ( 0.0000000000000000000, -1.000000000000000000, 0.0000000000000000000 ) ) ;
#47 = ITEM_DEFINED_TRANSFORMATION ( 'NONE', 'NONE', #194,  #358 ) ;
#48 = FILL_AREA_STYLE ('',( #40 ) ) ;
#49 = SURFACE_SIDE_STYLE ('',( #231 ) ) ;
#50 = SURFACE_STYLE_USAGE ( .BOTH. , #49 ) ;
#51 =( LENGTH_UNIT ( ) NAMED_UNIT ( * ) SI_UNIT ( .MILLI., .METRE. ) );
#52 =( NAMED_UNIT ( * ) PLANE_ANGLE_UNIT ( ) SI_UNIT ( $, .RADIAN. ) );
#53 =( NAMED_UNIT ( * ) SI_UNIT ( $, .STERADIAN. ) SOLID_ANGLE_UNIT ( ) );
#54 = ORIENTED_EDGE ( 'NONE', *, *, #109, .F. ) ;
#55 = EDGE_CURVE ( 'NONE', #73, #61, #265, .T. ) ;
#56 = DIRECTION ( 'NONE',  ( 1.000000000000000000, 0.0000000000000000000, 0.0000000000000000000 ) ) ;
#57 = CARTESIAN_POINT ( 'NONE',  ( 0.0000000000000000000, 109.5000000000000000, -1.399999999999999900 ) ) ;
#58 = ORIENTED_EDGE ( 'NONE', *, *, #398, .T. ) ;
#59 = DIRECTION ( 'NONE',  ( -1.000000000000000000, -1.809162631347704100E-016, 0.0000000000000000000 ) ) ;
#60 = ORIENTED_EDGE ( 'NONE', *, *, #77, .F. ) ;
#61 = VERTEX_POINT ( 'NONE', #136 ) ;
#62 = CARTESIAN_POINT ( 'NONE',  ( -131.0000000000000000, 0.0000000000000000000, 0.0000000000000000000 ) ) ;
#63 = DIRECTION ( 'NONE',  ( 1.000000000000000000, 0.0000000000000000000, 0.0000000000000000000 ) ) ;
#64 = DIRECTION ( 'NONE',  ( 0.0000000000000000000, 0.0000000000000000000, 1.000000000000000000 ) ) ;
#65 = PRODUCT ( '101381_Standard', '101381_Standard', '', ( #148 ) ) ;
#66 = PLANE ( 'NONE',  #375 ) ;
#67 = DIRECTION ( 'NONE',  ( -1.809162631347704100E-016, 1.000000000000000000, 0.0000000000000000000 ) ) ;
#68 = DIRECTION ( 'NONE',  ( -1.000000000000000000, -1.809162631347704100E-016, 0.0000000000000000000 ) ) ;
#69 = SHAPE_DEFINITION_REPRESENTATION ( #353, #297 ) ;
#70 = CARTESIAN_POINT ( 'NONE',  ( -75.55364821563212300, 107.4999999999999900, -1.399999999999999900 ) ) ;
#71 = DIRECTION ( 'NONE',  ( 0.0000000000000000000, 0.0000000000000000000, 1.000000000000000000 ) ) ;
#72 = CARTESIAN_POINT ( 'NONE',  ( -133.0000000000000000, 2.000000000000000000, -1.399999999999999900 ) ) ;
#73 = VERTEX_POINT ( 'NONE', #142 ) ;
#74 = CARTESIAN_POINT ( 'NONE',  ( -131.0000000000000000, 2.000000000000000000, -1.399999999999999900 ) ) ;
#75 = VERTEX_POINT ( 'NONE', #147 ) ;
#76 = DIRECTION ( 'NONE',  ( 0.0000000000000000000, 0.0000000000000000000, 1.000000000000000000 ) ) ;
#77 = EDGE_CURVE ( 'NONE', #351, #73, #255, .T. ) ;
#78 = DIRECTION ( 'NONE',  ( 1.000000000000000000, 0.0000000000000000000, 0.0000000000000000000 ) ) ;
#79 = CARTESIAN_POINT ( 'NONE',  ( -76.70834875401136800, 109.4999999999999900, -1.399999999999999900 ) ) ;
#80 = PLANE ( 'NONE',  #397 ) ;
#81 = CARTESIAN_POINT ( 'NONE',  ( -133.0000000000000000, 12.00000000000000000, 0.0000000000000000000 ) ) ;
#82 = PLANE ( 'NONE',  #167 ) ;
#83 = CARTESIAN_POINT ( 'NONE',  ( 0.0000000000000000000, 0.0000000000000000000, -1.399999999999999900 ) ) ;
#84 = DIRECTION ( 'NONE',  ( -0.8660254037844380400, 0.5000000000000010000, 0.0000000000000000000 ) ) ;
#85 = AXIS2_PLACEMENT_3D ( 'NONE', #6, #12, #13 ) ;
#86 = DIRECTION ( 'NONE',  ( -0.5000000000000010000, -0.8660254037844380400, 0.0000000000000000000 ) ) ;
#87 = AXIS2_PLACEMENT_3D ( 'NONE', #242, #131, #134 ) ;
#88 = ORIENTED_EDGE ( 'NONE', *, *, #26, .F. ) ;
#89 = ORIENTED_EDGE ( 'NONE', *, *, #330, .F. ) ;
#90 = PRODUCT_DEFINITION_CONTEXT ( 'detailed design', #408, 'design' ) ;
#91 = DIRECTION ( 'NONE',  ( 1.000000000000000000, 0.0000000000000000000, 0.0000000000000000000 ) ) ;
#92 = DIRECTION ( 'NONE',  ( 0.0000000000000000000, 0.0000000000000000000, -1.000000000000000000 ) ) ;
#93 = DIRECTION ( 'NONE',  ( 0.0000000000000000000, -0.0000000000000000000, 1.000000000000000000 ) ) ;
#94 = CARTESIAN_POINT ( 'NONE',  ( 0.0000000000000000000, 0.0000000000000000000, -1.399999999999999900 ) ) ;
#95 = DIRECTION ( 'NONE',  ( 1.000000000000000000, 0.0000000000000000000, 0.0000000000000000000 ) ) ;
#96 = CARTESIAN_POINT ( 'NONE',  ( -75.55364821563212300, 107.4999999999999900, -1.399999999999999900 ) ) ;
#97 = DIRECTION ( 'NONE',  ( -0.0000000000000000000, -0.0000000000000000000, -1.000000000000000000 ) ) ;
#98 = VERTEX_POINT ( 'NONE', #155 ) ;
#99 = DIRECTION ( 'NONE',  ( 1.000000000000000000, 0.0000000000000000000, 0.0000000000000000000 ) ) ;
#100 = ORIENTED_EDGE ( 'NONE', *, *, #55, .F. ) ;
#101 = ORIENTED_EDGE ( 'NONE', *, *, #141, .F. ) ;
#102 = ORIENTED_EDGE ( 'NONE', *, *, #390, .T. ) ;
#103 = EDGE_CURVE ( 'NONE', #291, #98, #257, .T. ) ;
#104 = CARTESIAN_POINT ( 'NONE',  ( -2.000000000000000000, 107.5000000000000000, -1.399999999999999900 ) ) ;
#105 = ORIENTED_EDGE ( 'NONE', *, *, #32, .F. ) ;
#106 = CARTESIAN_POINT ( 'NONE',  ( -2.000000000000000000, 107.5000000000000000, -1.399999999999999900 ) ) ;
#107 = PRODUCT_DEFINITION ( 'UNKNOWN', '', #380, #342 ) ;
#108 = ORIENTED_EDGE ( 'NONE', *, *, #334, .F. ) ;
#109 = EDGE_CURVE ( 'NONE', #301, #151, #249, .T. ) ;
#110 = EDGE_CURVE ( 'NONE', #150, #376, #262, .T. ) ;
#111 = DIRECTION ( 'NONE',  ( -0.0000000000000000000, -0.0000000000000000000, -1.000000000000000000 ) ) ;
#112 = ORIENTED_EDGE ( 'NONE', *, *, #103, .T. ) ;
#113 = ORIENTED_EDGE ( 'NONE', *, *, #103, .F. ) ;
#114 = DIRECTION ( 'NONE',  ( 1.000000000000000000, 0.0000000000000000000, 0.0000000000000000000 ) ) ;
#115 = PLANE ( 'NONE',  #341 ) ;
#116 = DIRECTION ( 'NONE',  ( 0.0000000000000000000, 0.0000000000000000000, 1.000000000000000000 ) ) ;
#117 = DIRECTION ( 'NONE',  ( 1.000000000000000000, 0.0000000000000000000, -0.0000000000000000000 ) ) ;
#118 = LINE ( 'NONE', #163, #247 ) ;
#119 = ORIENTED_EDGE ( 'NONE', *, *, #225, .F. ) ;
#120 = CARTESIAN_POINT ( 'NONE',  ( 0.0000000000000000000, 0.0000000000000000000, 0.0000000000000000000 ) ) ;
#121 = CARTESIAN_POINT ( 'NONE',  ( -2.000000000000000400, 109.5000000000000000, -1.399999999999999900 ) ) ;
#122 = CARTESIAN_POINT ( 'NONE',  ( 0.0000000000000000000, 107.5000000000000000, -1.399999999999999900 ) ) ;
#123 = ORIENTED_EDGE ( 'NONE', *, *, #329, .F. ) ;
#124 = DIRECTION ( 'NONE',  ( 1.000000000000000000, 0.0000000000000000000, 0.0000000000000000000 ) ) ;
#125 = EDGE_LOOP ( 'NONE', ( #123, #113, #105, #101 ) ) ;
#126 = DIRECTION ( 'NONE',  ( 0.0000000000000000000, 0.0000000000000000000, 1.000000000000000000 ) ) ;
#127 = CARTESIAN_POINT ( 'NONE',  ( -131.0000000000000000, 2.000000000000000000, 0.0000000000000000000 ) ) ;
#128 = EDGE_LOOP ( 'NONE', ( #180, #179, #171, #220 ) ) ;
#129 = EDGE_LOOP ( 'NONE', ( #284, #283, #285, #287, #290, #393, #347, #308, #310 ) ) ;
#130 = DIRECTION ( 'NONE',  ( 1.000000000000000000, 0.0000000000000000000, 0.0000000000000000000 ) ) ;
#131 = DIRECTION ( 'NONE',  ( 0.0000000000000000000, 0.0000000000000000000, 1.000000000000000000 ) ) ;
#132 = EDGE_CURVE ( 'NONE', #151, #182, #256, .T. ) ;
#133 = EDGE_CURVE ( 'NONE', #309, #301, #250, .T. ) ;
#134 = DIRECTION ( 'NONE',  ( 1.000000000000000000, 0.0000000000000000000, 0.0000000000000000000 ) ) ;
#135 = CARTESIAN_POINT ( 'NONE',  ( -131.0000000000000000, 0.0000000000000000000, -1.399999999999999900 ) ) ;
#136 = CARTESIAN_POINT ( 'NONE',  ( -133.0000000000000000, 2.000000000000000000, -1.399999999999999900 ) ) ;
#137 = EDGE_LOOP ( 'NONE', ( #303, #305, #307, #164 ) ) ;
#138 = CARTESIAN_POINT ( 'NONE',  ( -2.000000000000000000, 107.5000000000000000, 0.0000000000000000000 ) ) ;
#139 = DIRECTION ( 'NONE',  ( 0.0000000000000000000, 0.0000000000000000000, 1.000000000000000000 ) ) ;
#140 = DIRECTION ( 'NONE',  ( 1.000000000000000000, 0.0000000000000000000, 0.0000000000000000000 ) ) ;
#141 = EDGE_CURVE ( 'NONE', #306, #318, #245, .T. ) ;
#142 = CARTESIAN_POINT ( 'NONE',  ( -131.0000000000000000, 0.0000000000000000000, -1.399999999999999900 ) ) ;
#143 = CARTESIAN_POINT ( 'NONE',  ( -131.0000000000000000, 2.000000000000000000, -1.399999999999999900 ) ) ;
#144 = DIRECTION ( 'NONE',  ( -0.0000000000000000000, -0.0000000000000000000, -1.000000000000000000 ) ) ;
#145 = DIRECTION ( 'NONE',  ( 1.000000000000000000, 0.0000000000000000000, 0.0000000000000000000 ) ) ;
#146 = AXIS2_PLACEMENT_3D ( 'NONE', #208, #218, #232 ) ;
#147 = CARTESIAN_POINT ( 'NONE',  ( 0.0000000000000000000, 107.5000000000000000, 0.0000000000000000000 ) ) ;
#148 = PRODUCT_CONTEXT ( 'NONE', #332, 'mechanical' ) ;
#149 = DIRECTION ( 'NONE',  ( -1.000000000000000000, -1.809162631347704100E-016, 0.0000000000000000000 ) ) ;
#150 = VERTEX_POINT ( 'NONE', #158 ) ;
#151 = VERTEX_POINT ( 'NONE', #172 ) ;
#152 = DIRECTION ( 'NONE',  ( -0.0000000000000000000, -0.0000000000000000000, -1.000000000000000000 ) ) ;
#153 = CARTESIAN_POINT ( 'NONE',  ( 0.0000000000000000000, 2.000000000000000000, -1.399999999999999900 ) ) ;
#154 = ORIENTED_EDGE ( 'NONE', *, *, #141, .T. ) ;
#155 = CARTESIAN_POINT ( 'NONE',  ( 0.0000000000000000000, 2.000000000000000000, -1.399999999999999900 ) ) ;
#156 = DIRECTION ( 'NONE',  ( 0.0000000000000000000, -0.0000000000000000000, -1.000000000000000000 ) ) ;
#157 = CARTESIAN_POINT ( 'NONE',  ( 0.0000000000000000000, 109.5000000000000000, -1.399999999999999900 ) ) ;
#158 = CARTESIAN_POINT ( 'NONE',  ( -77.28569902320099100, 108.4999999999999900, 0.0000000000000000000 ) ) ;
#159 = CARTESIAN_POINT ( 'NONE',  ( -76.70834875401136800, 109.4999999999999900, 0.0000000000000000000 ) ) ;
#160 = DIRECTION ( 'NONE',  ( -0.5000000000000008900, -0.8660254037844380400, 0.0000000000000000000 ) ) ;
#161 = DIRECTION ( 'NONE',  ( 0.0000000000000000000, 0.0000000000000000000, 1.000000000000000000 ) ) ;
#162 = ORIENTED_EDGE ( 'NONE', *, *, #334, .T. ) ;
#163 = CARTESIAN_POINT ( 'NONE',  ( -133.0000000000000000, 12.00000000000000000, -1.399999999999999900 ) ) ;
#164 = ORIENTED_EDGE ( 'NONE', *, *, #9, .F. ) ;
#165 = CARTESIAN_POINT ( 'NONE',  ( -75.55364821563212300, 109.4999999999999900, -1.399999999999999900 ) ) ;
#166 = ORIENTED_EDGE ( 'NONE', *, *, #109, .T. ) ;
#167 = AXIS2_PLACEMENT_3D ( 'NONE', #79, #84, #86 ) ;
#168 = DIRECTION ( 'NONE',  ( -0.0000000000000000000, -0.0000000000000000000, -1.000000000000000000 ) ) ;
#169 = CARTESIAN_POINT ( 'NONE',  ( -2.000000000000001800, 0.0000000000000000000, -1.399999999999999900 ) ) ;
#170 = EDGE_LOOP ( 'NONE', ( #187, #175, #119, #112 ) ) ;
#171 = ORIENTED_EDGE ( 'NONE', *, *, #41, .F. ) ;
#172 = CARTESIAN_POINT ( 'NONE',  ( -75.55364821563212300, 109.4999999999999900, -1.399999999999999900 ) ) ;
#173 = VERTEX_POINT ( 'NONE', #122 ) ;
#174 = ORIENTED_EDGE ( 'NONE', *, *, #77, .T. ) ;
#175 = ORIENTED_EDGE ( 'NONE', *, *, #395, .T. ) ;
#176 = DIRECTION ( 'NONE',  ( -0.0000000000000000000, 0.0000000000000000000, 1.000000000000000000 ) ) ;
#177 = DIRECTION ( 'NONE',  ( 0.0000000000000000000, -1.000000000000000000, 0.0000000000000000000 ) ) ;
#178 = CARTESIAN_POINT ( 'NONE',  ( -133.0000000000000000, 12.00000000000000000, -1.399999999999999900 ) ) ;
#179 = ORIENTED_EDGE ( 'NONE', *, *, #133, .F. ) ;
#180 = ORIENTED_EDGE ( 'NONE', *, *, #398, .F. ) ;
#181 = DIRECTION ( 'NONE',  ( 1.000000000000000000, 0.0000000000000000000, 0.0000000000000000000 ) ) ;
#182 = VERTEX_POINT ( 'NONE', #4 ) ;
#183 = DIRECTION ( 'NONE',  ( 0.0000000000000000000, 0.0000000000000000000, 1.000000000000000000 ) ) ;
#184 = SHAPE_REPRESENTATION ( '6282770', ( #377, #194 ), #263 ) ;
#185 = CARTESIAN_POINT ( 'NONE',  ( -2.000000000000001800, 2.000000000000000000, -1.399999999999999900 ) ) ;
#186 = ORIENTED_EDGE ( 'NONE', *, *, #133, .T. ) ;
#187 = ORIENTED_EDGE ( 'NONE', *, *, #330, .T. ) ;
#188 = ORIENTED_EDGE ( 'NONE', *, *, #338, .F. ) ;
#189 = CARTESIAN_POINT ( 'NONE',  ( -75.55364821563212300, 107.4999999999999900, 0.0000000000000000000 ) ) ;
#190 =( GEOMETRIC_REPRESENTATION_CONTEXT ( 3 ) GLOBAL_UNCERTAINTY_ASSIGNED_CONTEXT ( ( #360 ) ) GLOBAL_UNIT_ASSIGNED_CONTEXT ( ( #51, #52, #53 ) ) REPRESENTATION_CONTEXT ( 'NONE', 'WORKASPACE' ) );
#191 = ORIENTED_EDGE ( 'NONE', *, *, #5, .F. ) ;
#192 = ORIENTED_EDGE ( 'NONE', *, *, #132, .F. ) ;
#193 = CARTESIAN_POINT ( 'NONE',  ( -133.0000000000000000, 12.00000000000000000, -1.399999999999999900 ) ) ;
#194 = AXIS2_PLACEMENT_3D ( 'NONE', #267, #278, #279 ) ;
#195 = ORIENTED_EDGE ( 'NONE', *, *, #132, .T. ) ;
#196 = EDGE_CURVE ( 'NONE', #23, #61, #118, .T. ) ;
#197 = DIRECTION ( 'NONE',  ( 1.000000000000000000, 0.0000000000000000000, 0.0000000000000000000 ) ) ;
#198 = FACE_OUTER_BOUND ( 'NONE', #368, .T. ) ;
#199 = CARTESIAN_POINT ( 'NONE',  ( -133.0000000000000000, 0.0000000000000000000, -1.399999999999999900 ) ) ;
#200 = DIRECTION ( 'NONE',  ( 0.0000000000000000000, 0.0000000000000000000, 1.000000000000000000 ) ) ;
#201 = VECTOR ( 'NONE', #59, 1000.000000000000000 ) ;
#202 =( NAMED_UNIT ( * ) PLANE_ANGLE_UNIT ( ) SI_UNIT ( $, .RADIAN. ) );
#203 = ADVANCED_FACE ( 'NONE', ( #336 ), #11, .T. ) ;
#204 = LINE ( 'NONE', #39, #201 ) ;
#205 = MECHANICAL_DESIGN_GEOMETRIC_PRESENTATION_REPRESENTATION (  '', ( #271 ), #190 ) ;
#206 = CARTESIAN_POINT ( 'NONE',  ( -77.28569902320099100, 108.4999999999999900, -1.399999999999999900 ) ) ;
#207 = CYLINDRICAL_SURFACE ( 'NONE', #36, 2.000000000000001800 ) ;
#208 = CARTESIAN_POINT ( 'NONE',  ( 0.0000000000000000000, 0.0000000000000000000, 0.0000000000000000000 ) ) ;
#209 = CIRCLE ( 'NONE', #387, 2.000000000000000000 ) ;
#210 = LINE ( 'NONE', #72, #236 ) ;
#211 = PLANE ( 'NONE',  #146 ) ;
#212 = FACE_OUTER_BOUND ( 'NONE', #356, .T. ) ;
#213 = DIRECTION ( 'NONE',  ( -0.0000000000000000000, 0.0000000000000000000, 1.000000000000000000 ) ) ;
#214 = VECTOR ( 'NONE', #56, 1000.000000000000000 ) ;
#215 = EDGE_CURVE ( 'NONE', #150, #1, #240, .T. ) ;
#216 =( LENGTH_UNIT ( ) NAMED_UNIT ( * ) SI_UNIT ( .MILLI., .METRE. ) );
#217 = FACE_OUTER_BOUND ( 'NONE', #170, .T. ) ;
#218 = DIRECTION ( 'NONE',  ( 0.0000000000000000000, 0.0000000000000000000, 1.000000000000000000 ) ) ;
#219 = APPLICATION_CONTEXT ( 'automotive_design' ) ;
#220 = ORIENTED_EDGE ( 'NONE', *, *, #395, .F. ) ;
#221 = CIRCLE ( 'NONE', #370, 2.000000000000001800 ) ;
#222 = VECTOR ( 'NONE', #46, 1000.000000000000000 ) ;
#223 = LINE ( 'NONE', #44, #214 ) ;
#224 = COLOUR_RGB ( '',1.000000000000000000, 1.000000000000000000, 1.000000000000000000 ) ;
#225 = EDGE_CURVE ( 'NONE', #291, #75, #237, .T. ) ;
#226 = PRESENTATION_STYLE_ASSIGNMENT (( #50 ) ) ;
#227 =( NAMED_UNIT ( * ) SI_UNIT ( $, .STERADIAN. ) SOLID_ANGLE_UNIT ( ) );
#228 = LINE ( 'NONE', #25, #230 ) ;
#229 = AXIS2_PLACEMENT_3D ( 'NONE', #127, #126, #124 ) ;
#230 = VECTOR ( 'NONE', #22, 1000.000000000000000 ) ;
#231 = SURFACE_STYLE_FILL_AREA ( #48 ) ;
#232 = DIRECTION ( 'NONE',  ( 1.000000000000000000, 0.0000000000000000000, -0.0000000000000000000 ) ) ;
#233 = FACE_OUTER_BOUND ( 'NONE', #407, .T. ) ;
#234 = AXIS2_PLACEMENT_3D ( 'NONE', #33, #35, #38 ) ;
#235 = LINE ( 'NONE', #42, #241 ) ;
#236 = VECTOR ( 'NONE', #71, 1000.000000000000000 ) ;
#237 = LINE ( 'NONE', #14, #243 ) ;
#238 = AXIS2_PLACEMENT_3D ( 'NONE', #143, #144, #145 ) ;
#239 = LINE ( 'NONE', #34, #222 ) ;
#240 = LINE ( 'NONE', #17, #252 ) ;
#241 = VECTOR ( 'NONE', #43, 1000.000000000000200 ) ;
#242 = CARTESIAN_POINT ( 'NONE',  ( -2.000000000000001800, 2.000000000000000000, 0.0000000000000000000 ) ) ;
#243 = VECTOR ( 'NONE', #10, 1000.000000000000000 ) ;
#244 = CIRCLE ( 'NONE', #344, 2.000000000000000000 ) ;
#245 = LINE ( 'NONE', #169, #248 ) ;
#246 = VECTOR ( 'NONE', #168, 1000.000000000000000 ) ;
#247 = VECTOR ( 'NONE', #177, 1000.000000000000000 ) ;
#248 = VECTOR ( 'NONE', #176, 1000.000000000000000 ) ;
#249 = LINE ( 'NONE', #157, #258 ) ;
#250 = LINE ( 'NONE', #121, #246 ) ;
#251 = VECTOR ( 'NONE', #160, 1000.000000000000200 ) ;
#252 = VECTOR ( 'NONE', #18, 1000.000000000000000 ) ;
#253 = PRESENTATION_LAYER_ASSIGNMENT (  '', '', ( #271 ) ) ;
#254 = VECTOR ( 'NONE', #161, 1000.000000000000000 ) ;
#255 = LINE ( 'NONE', #135, #343 ) ;
#256 = LINE ( 'NONE', #165, #254 ) ;
#257 = LINE ( 'NONE', #153, #264 ) ;
#258 = VECTOR ( 'NONE', #149, 1000.000000000000000 ) ;
#259 = CYLINDRICAL_SURFACE ( 'NONE', #354, 2.000000000000000000 ) ;
#260 = CIRCLE ( 'NONE', #286, 2.000000000000000000 ) ;
#261 = APPLICATION_PROTOCOL_DEFINITION ( 'draft international standard', 'automotive_design', 1998, #350 ) ;
#262 = LINE ( 'NONE', #159, #251 ) ;
#263 =( GEOMETRIC_REPRESENTATION_CONTEXT ( 3 ) GLOBAL_UNCERTAINTY_ASSIGNED_CONTEXT ( ( #367 ) ) GLOBAL_UNIT_ASSIGNED_CONTEXT ( ( #277, #275, #268 ) ) REPRESENTATION_CONTEXT ( 'NONE', 'WORKASPACE' ) );
#264 = VECTOR ( 'NONE', #156, 1000.000000000000000 ) ;
#265 = CIRCLE ( 'NONE', #238, 2.000000000000001800 ) ;
#266 = FACE_OUTER_BOUND ( 'NONE', #125, .T. ) ;
#267 = CARTESIAN_POINT ( 'NONE',  ( -38.54271872576964600, -50.17542332039829500, 53.02171114562333500 ) ) ;
#268 =( NAMED_UNIT ( * ) SI_UNIT ( $, .STERADIAN. ) SOLID_ANGLE_UNIT ( ) );
#269 = DIRECTION ( 'NONE',  ( 0.0000000000000000000, 0.0000000000000000000, 1.000000000000000000 ) ) ;
#270 = DIRECTION ( 'NONE',  ( 1.000000000000000000, 0.0000000000000000000, 0.0000000000000000000 ) ) ;
#271 = STYLED_ITEM ( 'NONE', ( #226 ), #337 ) ;
#272 = VECTOR ( 'NONE', #200, 1000.000000000000000 ) ;
#273 = CIRCLE ( 'NONE', #87, 2.000000000000000000 ) ;
#274 = CIRCLE ( 'NONE', #229, 2.000000000000001800 ) ;
#275 =( NAMED_UNIT ( * ) PLANE_ANGLE_UNIT ( ) SI_UNIT ( $, .RADIAN. ) );
#276 = LINE ( 'NONE', #199, #282 ) ;
#277 =( LENGTH_UNIT ( ) NAMED_UNIT ( * ) SI_UNIT ( .MILLI., .METRE. ) );
#278 = DIRECTION ( 'NONE',  ( 0.0000000000000000000, 0.0000000000000000000, 1.000000000000000000 ) ) ;
#279 = DIRECTION ( 'NONE',  ( 1.000000000000000000, 0.0000000000000000000, 0.0000000000000000000 ) ) ;
#280 = LINE ( 'NONE', #193, #272 ) ;
#281 = CIRCLE ( 'NONE', #403, 2.000000000000001800 ) ;
#282 = VECTOR ( 'NONE', #197, 1000.000000000000000 ) ;
#283 = ORIENTED_EDGE ( 'NONE', *, *, #7, .T. ) ;
#284 = ORIENTED_EDGE ( 'NONE', *, *, #338, .T. ) ;
#285 = ORIENTED_EDGE ( 'NONE', *, *, #110, .T. ) ;
#286 = AXIS2_PLACEMENT_3D ( 'NONE', #138, #139, #140 ) ;
#287 = ORIENTED_EDGE ( 'NONE', *, *, #335, .T. ) ;
#288 = ORIENTED_EDGE ( 'NONE', *, *, #5, .T. ) ;
#289 = ORIENTED_EDGE ( 'NONE', *, *, #348, .F. ) ;
#290 = ORIENTED_EDGE ( 'NONE', *, *, #26, .T. ) ;
#291 = VERTEX_POINT ( 'NONE', #20 ) ;
#292 = DIRECTION ( 'NONE',  ( 1.000000000000000000, 0.0000000000000000000, 0.0000000000000000000 ) ) ;
#293 = DIRECTION ( 'NONE',  ( 0.0000000000000000000, 0.0000000000000000000, 1.000000000000000000 ) ) ;
#294 = ORIENTED_EDGE ( 'NONE', *, *, #369, .F. ) ;
#295 =( NAMED_UNIT ( * ) PLANE_ANGLE_UNIT ( ) SI_UNIT ( $, .RADIAN. ) );
#296 = SURFACE_STYLE_USAGE ( .BOTH. , #300 ) ;
#297 = SHAPE_REPRESENTATION ( '101381_Standard', ( #358 ), #315 ) ;
#298 = FILL_AREA_STYLE ('',( #302 ) ) ;
#299 = ORIENTED_EDGE ( 'NONE', *, *, #55, .T. ) ;
#300 = SURFACE_SIDE_STYLE ('',( #384 ) ) ;
#301 = VERTEX_POINT ( 'NONE', #16 ) ;
#302 = FILL_AREA_STYLE_COLOUR ( '', #385 ) ;
#303 = ORIENTED_EDGE ( 'NONE', *, *, #196, .T. ) ;
#304 = CARTESIAN_POINT ( 'NONE',  ( 0.0000000000000000000, 0.0000000000000000000, 0.0000000000000000000 ) ) ;
#305 = ORIENTED_EDGE ( 'NONE', *, *, #369, .T. ) ;
#306 = VERTEX_POINT ( 'NONE', #21 ) ;
#307 = ORIENTED_EDGE ( 'NONE', *, *, #335, .F. ) ;
#308 = ORIENTED_EDGE ( 'NONE', *, *, #225, .T. ) ;
#309 = VERTEX_POINT ( 'NONE', #15 ) ;
#310 = ORIENTED_EDGE ( 'NONE', *, *, #41, .T. ) ;
#311 = ORIENTED_EDGE ( 'NONE', *, *, #196, .F. ) ;
#312 = ORIENTED_EDGE ( 'NONE', *, *, #390, .F. ) ;
#313 = ORIENTED_EDGE ( 'NONE', *, *, #110, .F. ) ;
#314 = ORIENTED_EDGE ( 'NONE', *, *, #215, .F. ) ;
#315 =( GEOMETRIC_REPRESENTATION_CONTEXT ( 3 ) GLOBAL_UNCERTAINTY_ASSIGNED_CONTEXT ( ( #362 ) ) GLOBAL_UNIT_ASSIGNED_CONTEXT ( ( #216, #202, #410 ) ) REPRESENTATION_CONTEXT ( 'NONE', 'WORKASPACE' ) );
#316 = ORIENTED_EDGE ( 'NONE', *, *, #9, .T. ) ;
#317 = FACE_OUTER_BOUND ( 'NONE', #129, .T. ) ;
#318 = VERTEX_POINT ( 'NONE', #19 ) ;
#319 = CYLINDRICAL_SURFACE ( 'NONE', #349, 2.000000000000000000 ) ;
#320 = LINE ( 'NONE', #2, #322 ) ;
#321 = VERTEX_POINT ( 'NONE', #24 ) ;
#322 = VECTOR ( 'NONE', #8, 1000.000000000000000 ) ;
#323 = FACE_OUTER_BOUND ( 'NONE', #374, .T. ) ;
#324 = CYLINDRICAL_SURFACE ( 'NONE', #372, 2.000000000000001800 ) ;
#325 = FACE_OUTER_BOUND ( 'NONE', #364, .T. ) ;
#326 = FACE_OUTER_BOUND ( 'NONE', #128, .T. ) ;
#327 = SHAPE_REPRESENTATION_RELATIONSHIP ( 'NONE' , 'NONE' ,  #297, #363 ) ;
#328 = FACE_OUTER_BOUND ( 'NONE', #399, .T. ) ;
#329 = EDGE_CURVE ( 'NONE', #98, #306, #244, .T. ) ;
#330 = EDGE_CURVE ( 'NONE', #98, #173, #228, .T. ) ;
#331 = ADVANCED_FACE ( 'NONE', ( #233 ), #31, .T. ) ;
#332 = APPLICATION_CONTEXT ( 'automotive_design' ) ;
#333 = PRODUCT_DEFINITION_SHAPE ( 'NONE', 'NONE',  #412 ) ;
#334 = EDGE_CURVE ( 'NONE', #1, #23, #235, .T. ) ;
#335 = EDGE_CURVE ( 'NONE', #376, #321, #239, .T. ) ;
#336 = FACE_OUTER_BOUND ( 'NONE', #137, .T. ) ;
#337 = MANIFOLD_SOLID_BREP ( 'Verrundung1', #27 ) ;
#338 = EDGE_CURVE ( 'NONE', #309, #182, #204, .T. ) ;
#339 = PRODUCT_RELATED_PRODUCT_CATEGORY ( 'part', '', ( #65 ) ) ;
#340 = STYLED_ITEM ( 'NONE', ( #379 ), #363 ) ;
#341 = AXIS2_PLACEMENT_3D ( 'NONE', #94, #116, #117 ) ;
#342 = PRODUCT_DEFINITION_CONTEXT ( 'detailed design', #219, 'design' ) ;
#343 = VECTOR ( 'NONE', #152, 1000.000000000000000 ) ;
#344 = AXIS2_PLACEMENT_3D ( 'NONE', #28, #29, #30 ) ;
#345 = ORIENTED_EDGE ( 'NONE', *, *, #215, .T. ) ;
#346 = PRODUCT_DEFINITION ( 'UNKNOWN', '', #388, #90 ) ;
#347 = ORIENTED_EDGE ( 'NONE', *, *, #32, .T. ) ;
#348 = EDGE_CURVE ( 'NONE', #351, #318, #223, .T. ) ;
#349 = AXIS2_PLACEMENT_3D ( 'NONE', #104, #93, #95 ) ;
#350 = APPLICATION_CONTEXT ( 'automotive_design' ) ;
#351 = VERTEX_POINT ( 'NONE', #62 ) ;
#352 = PRODUCT_RELATED_PRODUCT_CATEGORY ( 'part', '', ( #45 ) ) ;
#353 = PRODUCT_DEFINITION_SHAPE ( 'NONE', 'NONE',  #346 ) ;
#354 = AXIS2_PLACEMENT_3D ( 'NONE', #185, #213, #130 ) ;
#355 = ORIENTED_EDGE ( 'NONE', *, *, #329, .T. ) ;
#356 = EDGE_LOOP ( 'NONE', ( #312, #314, #366, #192 ) ) ;
#357 = ADVANCED_FACE ( 'NONE', ( #198 ), #66, .T. ) ;
#358 = AXIS2_PLACEMENT_3D ( 'NONE', #371, #383, #292 ) ;
#359 = ADVANCED_FACE ( 'NONE', ( #212 ), #207, .T. ) ;
#360 = UNCERTAINTY_MEASURE_WITH_UNIT (LENGTH_MEASURE( 1.000000000000000100E-005 ), #51, 'distance_accuracy_value', 'NONE');
#361 =( REPRESENTATION_RELATIONSHIP ('NONE','NONE', #184, #297 ) REPRESENTATION_RELATIONSHIP_WITH_TRANSFORMATION ( #47 )SHAPE_REPRESENTATION_RELATIONSHIP( ) );
#362 = UNCERTAINTY_MEASURE_WITH_UNIT (LENGTH_MEASURE( 1.000000000000000100E-005 ), #216, 'distance_accuracy_value', 'NONE');
#363 = ADVANCED_BREP_SHAPE_REPRESENTATION ( '', ( #337, #358 ), #315 ) ;
#364 = EDGE_LOOP ( 'NONE', ( #313, #345, #162, #316 ) ) ;
#365 = UNCERTAINTY_MEASURE_WITH_UNIT (LENGTH_MEASURE( 1.000000000000000100E-005 ), #381, 'distance_accuracy_value', 'NONE');
#366 = ORIENTED_EDGE ( 'NONE', *, *, #7, .F. ) ;
#367 = UNCERTAINTY_MEASURE_WITH_UNIT (LENGTH_MEASURE( 1.000000000000000100E-005 ), #277, 'distance_accuracy_value', 'NONE');
#368 = EDGE_LOOP ( 'NONE', ( #166, #195, #188, #186 ) ) ;
#369 = EDGE_CURVE ( 'NONE', #61, #321, #210, .T. ) ;
#370 = AXIS2_PLACEMENT_3D ( 'NONE', #96, #97, #99 ) ;
#371 = CARTESIAN_POINT ( 'NONE',  ( 0.0000000000000000000, 0.0000000000000000000, 0.0000000000000000000 ) ) ;
#372 = AXIS2_PLACEMENT_3D ( 'NONE', #74, #76, #78 ) ;
#373 = ADVANCED_FACE ( 'NONE', ( #328 ), #324, .T. ) ;
#374 = EDGE_LOOP ( 'NONE', ( #108, #102, #54, #58, #89, #355, #191, #299, #311 ) ) ;
#375 = AXIS2_PLACEMENT_3D ( 'NONE', #57, #67, #68 ) ;
#376 = VERTEX_POINT ( 'NONE', #81 ) ;
#377 = AXIS2_PLACEMENT_3D ( 'NONE', #120, #269, #270 ) ;
#378 = AXIS2_PLACEMENT_3D ( 'NONE', #304, #293, #382 ) ;
#379 = PRESENTATION_STYLE_ASSIGNMENT (( #296 ) ) ;
#380 = PRODUCT_DEFINITION_FORMATION_WITH_SPECIFIED_SOURCE ( 'ANY', '', #45, .NOT_KNOWN. ) ;
#381 =( LENGTH_UNIT ( ) NAMED_UNIT ( * ) SI_UNIT ( .MILLI., .METRE. ) );
#382 = DIRECTION ( 'NONE',  ( 1.000000000000000000, 0.0000000000000000000, 0.0000000000000000000 ) ) ;
#383 = DIRECTION ( 'NONE',  ( 0.0000000000000000000, 0.0000000000000000000, 1.000000000000000000 ) ) ;
#384 = SURFACE_STYLE_FILL_AREA ( #298 ) ;
#385 = COLOUR_RGB ( '',1.000000000000000000, 1.000000000000000000, 1.000000000000000000 ) ;
#386 = ADVANCED_FACE ( 'NONE', ( #325 ), #82, .T. ) ;
#387 = AXIS2_PLACEMENT_3D ( 'NONE', #106, #111, #114 ) ;
#388 = PRODUCT_DEFINITION_FORMATION_WITH_SPECIFIED_SOURCE ( 'ANY', '', #65, .NOT_KNOWN. ) ;
#389 = ADVANCED_FACE ( 'NONE', ( #217 ), #80, .T. ) ;
#390 = EDGE_CURVE ( 'NONE', #1, #151, #221, .T. ) ;
#391 = PRESENTATION_LAYER_ASSIGNMENT (  '', '', ( #340 ) ) ;
#392 = MECHANICAL_DESIGN_GEOMETRIC_PRESENTATION_REPRESENTATION (  '', ( #340 ), #404 ) ;
#393 = ORIENTED_EDGE ( 'NONE', *, *, #348, .T. ) ;
#394 = SHAPE_DEFINITION_REPRESENTATION ( #401, #184 ) ;
#395 = EDGE_CURVE ( 'NONE', #173, #75, #320, .T. ) ;
#396 = CONTEXT_DEPENDENT_SHAPE_REPRESENTATION ( #361, #333 ) ;
#397 = AXIS2_PLACEMENT_3D ( 'NONE', #83, #91, #92 ) ;
#398 = EDGE_CURVE ( 'NONE', #301, #173, #209, .T. ) ;
#399 = EDGE_LOOP ( 'NONE', ( #100, #60, #88, #294 ) ) ;
#400 = ADVANCED_FACE ( 'NONE', ( #326 ), #319, .T. ) ;
#401 = PRODUCT_DEFINITION_SHAPE ( 'NONE', 'NONE',  #107 ) ;
#402 = APPLICATION_PROTOCOL_DEFINITION ( 'draft international standard', 'automotive_design', 1998, #408 ) ;
#403 = AXIS2_PLACEMENT_3D ( 'NONE', #189, #183, #181 ) ;
#404 =( GEOMETRIC_REPRESENTATION_CONTEXT ( 3 ) GLOBAL_UNCERTAINTY_ASSIGNED_CONTEXT ( ( #365 ) ) GLOBAL_UNIT_ASSIGNED_CONTEXT ( ( #381, #295, #227 ) ) REPRESENTATION_CONTEXT ( 'NONE', 'WORKASPACE' ) );
#405 = ADVANCED_FACE ( 'NONE', ( #323 ), #115, .F. ) ;
#406 = PRODUCT_CONTEXT ( 'NONE', #350, 'mechanical' ) ;
#407 = EDGE_LOOP ( 'NONE', ( #288, #154, #289, #174 ) ) ;
#408 = APPLICATION_CONTEXT ( 'automotive_design' ) ;
#409 = APPLICATION_PROTOCOL_DEFINITION ( 'draft international standard', 'automotive_design', 1998, #332 ) ;
#410 =( NAMED_UNIT ( * ) SI_UNIT ( $, .STERADIAN. ) SOLID_ANGLE_UNIT ( ) );
#411 = APPLICATION_PROTOCOL_DEFINITION ( 'draft international standard', 'automotive_design', 1998, #219 ) ;
#412 = NEXT_ASSEMBLY_USAGE_OCCURRENCE ( 'NAUO1', ' ', ' ', #107, #346, $ ) ;
ENDSEC;
END-ISO-10303-21;
