ISO-10303-21;
HEADER;
FILE_DESCRIPTION((''),'2;1');
FILE_NAME('6221351','2013-01-28T',('AndreasKeweloh'),(''),
'PRO/ENGINEER BY PARAMETRIC TECHNOLOGY CORPORATION, 2012360',
'PRO/ENGINEER BY PARAMETRIC TECHNOLOGY CORPORATION, 2012360','');
FILE_SCHEMA(('CONFIG_CONTROL_DESIGN'));
ENDSEC;
DATA;
#1=DIRECTION('',(-1.E0,0.E0,0.E0));
#2=VECTOR('',#1,3.4E1);
#3=CARTESIAN_POINT('',(3.7E1,1.5E0,0.E0));
#4=LINE('',#3,#2);
#5=CARTESIAN_POINT('',(3.E0,3.E0,0.E0));
#6=DIRECTION('',(0.E0,0.E0,-1.E0));
#7=DIRECTION('',(0.E0,-1.E0,0.E0));
#8=AXIS2_PLACEMENT_3D('',#5,#6,#7);
#10=DIRECTION('',(0.E0,1.E0,0.E0));
#11=VECTOR('',#10,5.48E1);
#12=CARTESIAN_POINT('',(1.5E0,3.E0,0.E0));
#13=LINE('',#12,#11);
#14=CARTESIAN_POINT('',(-6.E0,5.78E1,0.E0));
#15=DIRECTION('',(0.E0,0.E0,1.E0));
#16=DIRECTION('',(1.E0,0.E0,0.E0));
#17=AXIS2_PLACEMENT_3D('',#14,#15,#16);
#19=DIRECTION('',(1.E0,0.E0,0.E0));
#20=VECTOR('',#19,1.5E0);
#21=CARTESIAN_POINT('',(-1.35E1,5.78E1,0.E0));
#22=LINE('',#21,#20);
#23=CARTESIAN_POINT('',(-6.E0,5.78E1,0.E0));
#24=DIRECTION('',(0.E0,0.E0,-1.E0));
#25=DIRECTION('',(-1.E0,0.E0,0.E0));
#26=AXIS2_PLACEMENT_3D('',#23,#24,#25);
#28=DIRECTION('',(0.E0,-1.E0,0.E0));
#29=VECTOR('',#28,5.48E1);
#30=CARTESIAN_POINT('',(0.E0,5.78E1,0.E0));
#31=LINE('',#30,#29);
#32=CARTESIAN_POINT('',(3.E0,3.E0,0.E0));
#33=DIRECTION('',(0.E0,0.E0,1.E0));
#34=DIRECTION('',(-1.E0,0.E0,0.E0));
#35=AXIS2_PLACEMENT_3D('',#32,#33,#34);
#37=DIRECTION('',(1.E0,0.E0,0.E0));
#38=VECTOR('',#37,3.4E1);
#39=CARTESIAN_POINT('',(3.E0,0.E0,0.E0));
#40=LINE('',#39,#38);
#41=DIRECTION('',(0.E0,1.E0,0.E0));
#42=VECTOR('',#41,1.5E0);
#43=CARTESIAN_POINT('',(3.7E1,0.E0,0.E0));
#44=LINE('',#43,#42);
#45=DIRECTION('',(0.E0,0.E0,1.E0));
#46=VECTOR('',#45,5.E1);
#47=CARTESIAN_POINT('',(3.7E1,1.5E0,0.E0));
#48=LINE('',#47,#46);
#49=DIRECTION('',(0.E0,0.E0,1.E0));
#50=VECTOR('',#49,5.E1);
#51=CARTESIAN_POINT('',(3.7E1,0.E0,0.E0));
#52=LINE('',#51,#50);
#53=DIRECTION('',(0.E0,0.E0,1.E0));
#54=VECTOR('',#53,5.E1);
#55=CARTESIAN_POINT('',(3.E0,0.E0,0.E0));
#56=LINE('',#55,#54);
#57=DIRECTION('',(0.E0,0.E0,1.E0));
#58=VECTOR('',#57,5.E1);
#59=CARTESIAN_POINT('',(0.E0,3.E0,0.E0));
#60=LINE('',#59,#58);
#61=DIRECTION('',(0.E0,0.E0,1.E0));
#62=VECTOR('',#61,5.E1);
#63=CARTESIAN_POINT('',(0.E0,5.78E1,0.E0));
#64=LINE('',#63,#62);
#65=DIRECTION('',(0.E0,0.E0,1.E0));
#66=VECTOR('',#65,5.E1);
#67=CARTESIAN_POINT('',(-1.2E1,5.78E1,0.E0));
#68=LINE('',#67,#66);
#69=DIRECTION('',(0.E0,0.E0,1.E0));
#70=VECTOR('',#69,5.E1);
#71=CARTESIAN_POINT('',(-1.35E1,5.78E1,0.E0));
#72=LINE('',#71,#70);
#73=DIRECTION('',(0.E0,0.E0,1.E0));
#74=VECTOR('',#73,5.E1);
#75=CARTESIAN_POINT('',(1.5E0,5.78E1,0.E0));
#76=LINE('',#75,#74);
#77=DIRECTION('',(0.E0,0.E0,1.E0));
#78=VECTOR('',#77,5.E1);
#79=CARTESIAN_POINT('',(1.5E0,3.E0,0.E0));
#80=LINE('',#79,#78);
#81=DIRECTION('',(0.E0,0.E0,1.E0));
#82=VECTOR('',#81,5.E1);
#83=CARTESIAN_POINT('',(3.E0,1.5E0,0.E0));
#84=LINE('',#83,#82);
#85=DIRECTION('',(-1.E0,0.E0,0.E0));
#86=VECTOR('',#85,3.4E1);
#87=CARTESIAN_POINT('',(3.7E1,1.5E0,5.E1));
#88=LINE('',#87,#86);
#89=DIRECTION('',(0.E0,1.E0,0.E0));
#90=VECTOR('',#89,1.5E0);
#91=CARTESIAN_POINT('',(3.7E1,0.E0,5.E1));
#92=LINE('',#91,#90);
#93=DIRECTION('',(1.E0,0.E0,0.E0));
#94=VECTOR('',#93,3.4E1);
#95=CARTESIAN_POINT('',(3.E0,0.E0,5.E1));
#96=LINE('',#95,#94);
#97=CARTESIAN_POINT('',(3.E0,3.E0,5.E1));
#98=DIRECTION('',(0.E0,0.E0,1.E0));
#99=DIRECTION('',(-1.E0,0.E0,0.E0));
#100=AXIS2_PLACEMENT_3D('',#97,#98,#99);
#102=DIRECTION('',(0.E0,-1.E0,0.E0));
#103=VECTOR('',#102,5.48E1);
#104=CARTESIAN_POINT('',(0.E0,5.78E1,5.E1));
#105=LINE('',#104,#103);
#106=CARTESIAN_POINT('',(-6.E0,5.78E1,5.E1));
#107=DIRECTION('',(0.E0,0.E0,-1.E0));
#108=DIRECTION('',(-1.E0,0.E0,0.E0));
#109=AXIS2_PLACEMENT_3D('',#106,#107,#108);
#111=DIRECTION('',(1.E0,0.E0,0.E0));
#112=VECTOR('',#111,1.5E0);
#113=CARTESIAN_POINT('',(-1.35E1,5.78E1,5.E1));
#114=LINE('',#113,#112);
#115=CARTESIAN_POINT('',(-6.E0,5.78E1,5.E1));
#116=DIRECTION('',(0.E0,0.E0,1.E0));
#117=DIRECTION('',(1.E0,0.E0,0.E0));
#118=AXIS2_PLACEMENT_3D('',#115,#116,#117);
#120=DIRECTION('',(0.E0,1.E0,0.E0));
#121=VECTOR('',#120,5.48E1);
#122=CARTESIAN_POINT('',(1.5E0,3.E0,5.E1));
#123=LINE('',#122,#121);
#124=CARTESIAN_POINT('',(3.E0,3.E0,5.E1));
#125=DIRECTION('',(0.E0,0.E0,-1.E0));
#126=DIRECTION('',(0.E0,-1.E0,0.E0));
#127=AXIS2_PLACEMENT_3D('',#124,#125,#126);
#129=CARTESIAN_POINT('',(3.7E1,1.5E0,0.E0));
#130=CARTESIAN_POINT('',(3.E0,1.5E0,0.E0));
#131=VERTEX_POINT('',#129);
#132=VERTEX_POINT('',#130);
#133=CARTESIAN_POINT('',(1.5E0,3.E0,0.E0));
#134=VERTEX_POINT('',#133);
#135=CARTESIAN_POINT('',(1.5E0,5.78E1,0.E0));
#136=VERTEX_POINT('',#135);
#137=CARTESIAN_POINT('',(-1.35E1,5.78E1,0.E0));
#138=VERTEX_POINT('',#137);
#139=CARTESIAN_POINT('',(-1.2E1,5.78E1,0.E0));
#140=VERTEX_POINT('',#139);
#141=CARTESIAN_POINT('',(0.E0,5.78E1,0.E0));
#142=VERTEX_POINT('',#141);
#143=CARTESIAN_POINT('',(0.E0,3.E0,0.E0));
#144=VERTEX_POINT('',#143);
#145=CARTESIAN_POINT('',(3.E0,0.E0,0.E0));
#146=VERTEX_POINT('',#145);
#147=CARTESIAN_POINT('',(3.7E1,0.E0,0.E0));
#148=VERTEX_POINT('',#147);
#149=CARTESIAN_POINT('',(3.7E1,1.5E0,5.E1));
#150=CARTESIAN_POINT('',(3.E0,1.5E0,5.E1));
#151=VERTEX_POINT('',#149);
#152=VERTEX_POINT('',#150);
#153=CARTESIAN_POINT('',(1.5E0,3.E0,5.E1));
#154=VERTEX_POINT('',#153);
#155=CARTESIAN_POINT('',(1.5E0,5.78E1,5.E1));
#156=VERTEX_POINT('',#155);
#157=CARTESIAN_POINT('',(-1.35E1,5.78E1,5.E1));
#158=VERTEX_POINT('',#157);
#159=CARTESIAN_POINT('',(-1.2E1,5.78E1,5.E1));
#160=VERTEX_POINT('',#159);
#161=CARTESIAN_POINT('',(0.E0,5.78E1,5.E1));
#162=VERTEX_POINT('',#161);
#163=CARTESIAN_POINT('',(0.E0,3.E0,5.E1));
#164=VERTEX_POINT('',#163);
#165=CARTESIAN_POINT('',(3.E0,0.E0,5.E1));
#166=VERTEX_POINT('',#165);
#167=CARTESIAN_POINT('',(3.7E1,0.E0,5.E1));
#168=VERTEX_POINT('',#167);
#169=CARTESIAN_POINT('',(0.E0,0.E0,0.E0));
#170=DIRECTION('',(0.E0,0.E0,1.E0));
#171=DIRECTION('',(1.E0,0.E0,0.E0));
#172=AXIS2_PLACEMENT_3D('',#169,#170,#171);
#173=PLANE('',#172);
#175=ORIENTED_EDGE('',*,*,#174,.T.);
#177=ORIENTED_EDGE('',*,*,#176,.T.);
#179=ORIENTED_EDGE('',*,*,#178,.T.);
#181=ORIENTED_EDGE('',*,*,#180,.T.);
#183=ORIENTED_EDGE('',*,*,#182,.T.);
#185=ORIENTED_EDGE('',*,*,#184,.T.);
#187=ORIENTED_EDGE('',*,*,#186,.T.);
#189=ORIENTED_EDGE('',*,*,#188,.T.);
#191=ORIENTED_EDGE('',*,*,#190,.T.);
#193=ORIENTED_EDGE('',*,*,#192,.T.);
#194=EDGE_LOOP('',(#175,#177,#179,#181,#183,#185,#187,#189,#191,#193));
#195=FACE_OUTER_BOUND('',#194,.F.);
#196=ADVANCED_FACE('',(#195),#173,.F.);
#197=CARTESIAN_POINT('',(3.7E1,1.5E0,0.E0));
#198=DIRECTION('',(0.E0,1.E0,0.E0));
#199=DIRECTION('',(-1.E0,0.E0,0.E0));
#200=AXIS2_PLACEMENT_3D('',#197,#198,#199);
#201=PLANE('',#200);
#202=ORIENTED_EDGE('',*,*,#174,.F.);
#204=ORIENTED_EDGE('',*,*,#203,.T.);
#206=ORIENTED_EDGE('',*,*,#205,.T.);
#208=ORIENTED_EDGE('',*,*,#207,.F.);
#209=EDGE_LOOP('',(#202,#204,#206,#208));
#210=FACE_OUTER_BOUND('',#209,.F.);
#211=ADVANCED_FACE('',(#210),#201,.T.);
#212=CARTESIAN_POINT('',(3.7E1,0.E0,0.E0));
#213=DIRECTION('',(1.E0,0.E0,0.E0));
#214=DIRECTION('',(0.E0,1.E0,0.E0));
#215=AXIS2_PLACEMENT_3D('',#212,#213,#214);
#216=PLANE('',#215);
#217=ORIENTED_EDGE('',*,*,#192,.F.);
#219=ORIENTED_EDGE('',*,*,#218,.T.);
#221=ORIENTED_EDGE('',*,*,#220,.T.);
#222=ORIENTED_EDGE('',*,*,#203,.F.);
#223=EDGE_LOOP('',(#217,#219,#221,#222));
#224=FACE_OUTER_BOUND('',#223,.F.);
#225=ADVANCED_FACE('',(#224),#216,.T.);
#226=CARTESIAN_POINT('',(3.E0,0.E0,0.E0));
#227=DIRECTION('',(0.E0,-1.E0,0.E0));
#228=DIRECTION('',(1.E0,0.E0,0.E0));
#229=AXIS2_PLACEMENT_3D('',#226,#227,#228);
#230=PLANE('',#229);
#231=ORIENTED_EDGE('',*,*,#190,.F.);
#233=ORIENTED_EDGE('',*,*,#232,.T.);
#235=ORIENTED_EDGE('',*,*,#234,.T.);
#236=ORIENTED_EDGE('',*,*,#218,.F.);
#237=EDGE_LOOP('',(#231,#233,#235,#236));
#238=FACE_OUTER_BOUND('',#237,.F.);
#239=ADVANCED_FACE('',(#238),#230,.T.);
#240=CARTESIAN_POINT('',(3.E0,3.E0,0.E0));
#241=DIRECTION('',(0.E0,0.E0,1.E0));
#242=DIRECTION('',(1.E0,0.E0,0.E0));
#243=AXIS2_PLACEMENT_3D('',#240,#241,#242);
#244=CYLINDRICAL_SURFACE('',#243,3.E0);
#245=ORIENTED_EDGE('',*,*,#188,.F.);
#247=ORIENTED_EDGE('',*,*,#246,.T.);
#249=ORIENTED_EDGE('',*,*,#248,.T.);
#250=ORIENTED_EDGE('',*,*,#232,.F.);
#251=EDGE_LOOP('',(#245,#247,#249,#250));
#252=FACE_OUTER_BOUND('',#251,.F.);
#253=ADVANCED_FACE('',(#252),#244,.T.);
#254=CARTESIAN_POINT('',(0.E0,5.78E1,0.E0));
#255=DIRECTION('',(-1.E0,0.E0,0.E0));
#256=DIRECTION('',(0.E0,-1.E0,0.E0));
#257=AXIS2_PLACEMENT_3D('',#254,#255,#256);
#258=PLANE('',#257);
#259=ORIENTED_EDGE('',*,*,#186,.F.);
#261=ORIENTED_EDGE('',*,*,#260,.T.);
#263=ORIENTED_EDGE('',*,*,#262,.T.);
#264=ORIENTED_EDGE('',*,*,#246,.F.);
#265=EDGE_LOOP('',(#259,#261,#263,#264));
#266=FACE_OUTER_BOUND('',#265,.F.);
#267=ADVANCED_FACE('',(#266),#258,.T.);
#268=CARTESIAN_POINT('',(-6.E0,5.78E1,0.E0));
#269=DIRECTION('',(0.E0,0.E0,1.E0));
#270=DIRECTION('',(1.E0,0.E0,0.E0));
#271=AXIS2_PLACEMENT_3D('',#268,#269,#270);
#272=CYLINDRICAL_SURFACE('',#271,6.E0);
#273=ORIENTED_EDGE('',*,*,#184,.F.);
#275=ORIENTED_EDGE('',*,*,#274,.T.);
#277=ORIENTED_EDGE('',*,*,#276,.T.);
#278=ORIENTED_EDGE('',*,*,#260,.F.);
#279=EDGE_LOOP('',(#273,#275,#277,#278));
#280=FACE_OUTER_BOUND('',#279,.F.);
#281=ADVANCED_FACE('',(#280),#272,.F.);
#282=CARTESIAN_POINT('',(-1.35E1,5.78E1,0.E0));
#283=DIRECTION('',(0.E0,-1.E0,0.E0));
#284=DIRECTION('',(1.E0,0.E0,0.E0));
#285=AXIS2_PLACEMENT_3D('',#282,#283,#284);
#286=PLANE('',#285);
#287=ORIENTED_EDGE('',*,*,#182,.F.);
#289=ORIENTED_EDGE('',*,*,#288,.T.);
#291=ORIENTED_EDGE('',*,*,#290,.T.);
#292=ORIENTED_EDGE('',*,*,#274,.F.);
#293=EDGE_LOOP('',(#287,#289,#291,#292));
#294=FACE_OUTER_BOUND('',#293,.F.);
#295=ADVANCED_FACE('',(#294),#286,.T.);
#296=CARTESIAN_POINT('',(-6.E0,5.78E1,0.E0));
#297=DIRECTION('',(0.E0,0.E0,1.E0));
#298=DIRECTION('',(1.E0,0.E0,0.E0));
#299=AXIS2_PLACEMENT_3D('',#296,#297,#298);
#300=CYLINDRICAL_SURFACE('',#299,7.5E0);
#301=ORIENTED_EDGE('',*,*,#180,.F.);
#303=ORIENTED_EDGE('',*,*,#302,.T.);
#305=ORIENTED_EDGE('',*,*,#304,.T.);
#306=ORIENTED_EDGE('',*,*,#288,.F.);
#307=EDGE_LOOP('',(#301,#303,#305,#306));
#308=FACE_OUTER_BOUND('',#307,.F.);
#309=ADVANCED_FACE('',(#308),#300,.T.);
#310=CARTESIAN_POINT('',(1.5E0,3.E0,0.E0));
#311=DIRECTION('',(1.E0,0.E0,0.E0));
#312=DIRECTION('',(0.E0,1.E0,0.E0));
#313=AXIS2_PLACEMENT_3D('',#310,#311,#312);
#314=PLANE('',#313);
#315=ORIENTED_EDGE('',*,*,#178,.F.);
#317=ORIENTED_EDGE('',*,*,#316,.T.);
#319=ORIENTED_EDGE('',*,*,#318,.T.);
#320=ORIENTED_EDGE('',*,*,#302,.F.);
#321=EDGE_LOOP('',(#315,#317,#319,#320));
#322=FACE_OUTER_BOUND('',#321,.F.);
#323=ADVANCED_FACE('',(#322),#314,.T.);
#324=CARTESIAN_POINT('',(3.E0,3.E0,0.E0));
#325=DIRECTION('',(0.E0,0.E0,1.E0));
#326=DIRECTION('',(1.E0,0.E0,0.E0));
#327=AXIS2_PLACEMENT_3D('',#324,#325,#326);
#328=CYLINDRICAL_SURFACE('',#327,1.5E0);
#329=ORIENTED_EDGE('',*,*,#176,.F.);
#330=ORIENTED_EDGE('',*,*,#207,.T.);
#332=ORIENTED_EDGE('',*,*,#331,.T.);
#333=ORIENTED_EDGE('',*,*,#316,.F.);
#334=EDGE_LOOP('',(#329,#330,#332,#333));
#335=FACE_OUTER_BOUND('',#334,.F.);
#336=ADVANCED_FACE('',(#335),#328,.F.);
#337=CARTESIAN_POINT('',(0.E0,0.E0,5.E1));
#338=DIRECTION('',(0.E0,0.E0,1.E0));
#339=DIRECTION('',(1.E0,0.E0,0.E0));
#340=AXIS2_PLACEMENT_3D('',#337,#338,#339);
#341=PLANE('',#340);
#342=ORIENTED_EDGE('',*,*,#205,.F.);
#343=ORIENTED_EDGE('',*,*,#220,.F.);
#344=ORIENTED_EDGE('',*,*,#234,.F.);
#345=ORIENTED_EDGE('',*,*,#248,.F.);
#346=ORIENTED_EDGE('',*,*,#262,.F.);
#347=ORIENTED_EDGE('',*,*,#276,.F.);
#348=ORIENTED_EDGE('',*,*,#290,.F.);
#349=ORIENTED_EDGE('',*,*,#304,.F.);
#350=ORIENTED_EDGE('',*,*,#318,.F.);
#351=ORIENTED_EDGE('',*,*,#331,.F.);
#352=EDGE_LOOP('',(#342,#343,#344,#345,#346,#347,#348,#349,#350,#351));
#353=FACE_OUTER_BOUND('',#352,.F.);
#354=ADVANCED_FACE('',(#353),#341,.T.);
#355=CLOSED_SHELL('',(#196,#211,#225,#239,#253,#267,#281,#295,#309,#323,#336,
#354));
#356=MANIFOLD_SOLID_BREP('',#355);
#358=DIMENSIONAL_EXPONENTS(0.E0,0.E0,0.E0,0.E0,0.E0,0.E0,0.E0);
#360=PLANE_ANGLE_MEASURE_WITH_UNIT(PLANE_ANGLE_MEASURE(1.745329251994E-2),#359);
#361=(CONVERSION_BASED_UNIT('DEGREE',#360)NAMED_UNIT(*)PLANE_ANGLE_UNIT());
#363=UNCERTAINTY_MEASURE_WITH_UNIT(LENGTH_MEASURE(1.E-2),#357,'closure',
'Maximum model space distance between geometric entities at asserted connectivities');
#364=(GEOMETRIC_REPRESENTATION_CONTEXT(3)GLOBAL_UNCERTAINTY_ASSIGNED_CONTEXT((
#363))GLOBAL_UNIT_ASSIGNED_CONTEXT((#357,#361,#362))REPRESENTATION_CONTEXT
('ID1','3'));
#366=APPLICATION_CONTEXT(
'CONFIGURATION CONTROLLED 3D DESIGNS OF MECHANICAL PARTS AND ASSEMBLIES');
#367=APPLICATION_PROTOCOL_DEFINITION('international standard',
'config_control_design',1994,#366);
#368=DESIGN_CONTEXT('',#366,'design');
#369=MECHANICAL_CONTEXT('',#366,'mechanical');
#370=PRODUCT('6221351','6221351','NOT SPECIFIED',(#369));
#371=PRODUCT_DEFINITION_FORMATION_WITH_SPECIFIED_SOURCE('2','LAST_VERSION',#370,
.MADE.);
#375=PRODUCT_CATEGORY('part','');
#376=PRODUCT_RELATED_PRODUCT_CATEGORY('detail','',(#370));
#377=PRODUCT_CATEGORY_RELATIONSHIP('','',#375,#376);
#378=SECURITY_CLASSIFICATION_LEVEL('unclassified');
#379=SECURITY_CLASSIFICATION('','',#378);
#380=CC_DESIGN_SECURITY_CLASSIFICATION(#379,(#371));
#381=APPROVAL_STATUS('approved');
#382=APPROVAL(#381,'');
#383=CC_DESIGN_APPROVAL(#382,(#379,#371,#372));
#384=CALENDAR_DATE(113,28,1);
#385=COORDINATED_UNIVERSAL_TIME_OFFSET(1,0,.AHEAD.);
#386=LOCAL_TIME(10,57,4.9E1,#385);
#387=DATE_AND_TIME(#384,#386);
#388=APPROVAL_DATE_TIME(#387,#382);
#389=DATE_TIME_ROLE('creation_date');
#390=CC_DESIGN_DATE_AND_TIME_ASSIGNMENT(#387,#389,(#372));
#391=DATE_TIME_ROLE('classification_date');
#392=CC_DESIGN_DATE_AND_TIME_ASSIGNMENT(#387,#391,(#379));
#393=PERSON('UNSPECIFIED','UNSPECIFIED',$,$,$,$);
#394=ORGANIZATION('UNSPECIFIED','UNSPECIFIED','UNSPECIFIED');
#395=PERSON_AND_ORGANIZATION(#393,#394);
#396=APPROVAL_ROLE('approver');
#397=APPROVAL_PERSON_ORGANIZATION(#395,#382,#396);
#398=PERSON_AND_ORGANIZATION_ROLE('creator');
#399=CC_DESIGN_PERSON_AND_ORGANIZATION_ASSIGNMENT(#395,#398,(#371,#372));
#400=PERSON_AND_ORGANIZATION_ROLE('design_supplier');
#401=CC_DESIGN_PERSON_AND_ORGANIZATION_ASSIGNMENT(#395,#400,(#371));
#402=PERSON_AND_ORGANIZATION_ROLE('classification_officer');
#403=CC_DESIGN_PERSON_AND_ORGANIZATION_ASSIGNMENT(#395,#402,(#379));
#404=PERSON_AND_ORGANIZATION_ROLE('design_owner');
#405=CC_DESIGN_PERSON_AND_ORGANIZATION_ASSIGNMENT(#395,#404,(#370));
#9=CIRCLE('',#8,1.5E0);
#18=CIRCLE('',#17,7.5E0);
#27=CIRCLE('',#26,6.E0);
#36=CIRCLE('',#35,3.E0);
#101=CIRCLE('',#100,3.E0);
#110=CIRCLE('',#109,6.E0);
#119=CIRCLE('',#118,7.5E0);
#128=CIRCLE('',#127,1.5E0);
#174=EDGE_CURVE('',#131,#132,#4,.T.);
#176=EDGE_CURVE('',#132,#134,#9,.T.);
#178=EDGE_CURVE('',#134,#136,#13,.T.);
#180=EDGE_CURVE('',#136,#138,#18,.T.);
#182=EDGE_CURVE('',#138,#140,#22,.T.);
#184=EDGE_CURVE('',#140,#142,#27,.T.);
#186=EDGE_CURVE('',#142,#144,#31,.T.);
#188=EDGE_CURVE('',#144,#146,#36,.T.);
#190=EDGE_CURVE('',#146,#148,#40,.T.);
#192=EDGE_CURVE('',#148,#131,#44,.T.);
#203=EDGE_CURVE('',#131,#151,#48,.T.);
#205=EDGE_CURVE('',#151,#152,#88,.T.);
#207=EDGE_CURVE('',#132,#152,#84,.T.);
#218=EDGE_CURVE('',#148,#168,#52,.T.);
#220=EDGE_CURVE('',#168,#151,#92,.T.);
#232=EDGE_CURVE('',#146,#166,#56,.T.);
#234=EDGE_CURVE('',#166,#168,#96,.T.);
#246=EDGE_CURVE('',#144,#164,#60,.T.);
#248=EDGE_CURVE('',#164,#166,#101,.T.);
#260=EDGE_CURVE('',#142,#162,#64,.T.);
#262=EDGE_CURVE('',#162,#164,#105,.T.);
#274=EDGE_CURVE('',#140,#160,#68,.T.);
#276=EDGE_CURVE('',#160,#162,#110,.T.);
#288=EDGE_CURVE('',#138,#158,#72,.T.);
#290=EDGE_CURVE('',#158,#160,#114,.T.);
#302=EDGE_CURVE('',#136,#156,#76,.T.);
#304=EDGE_CURVE('',#156,#158,#119,.T.);
#316=EDGE_CURVE('',#134,#154,#80,.T.);
#318=EDGE_CURVE('',#154,#156,#123,.T.);
#331=EDGE_CURVE('',#152,#154,#128,.T.);
#357=(LENGTH_UNIT()NAMED_UNIT(*)SI_UNIT(.MILLI.,.METRE.));
#359=(NAMED_UNIT(*)PLANE_ANGLE_UNIT()SI_UNIT($,.RADIAN.));
#362=(NAMED_UNIT(*)SI_UNIT($,.STERADIAN.)SOLID_ANGLE_UNIT());
#365=ADVANCED_BREP_SHAPE_REPRESENTATION('',(#356),#364);
#372=PRODUCT_DEFINITION('design','',#371,#368);
#373=PRODUCT_DEFINITION_SHAPE('','SHAPE FOR 6221351.',#372);
#374=SHAPE_DEFINITION_REPRESENTATION(#373,#365);
ENDSEC;
END-ISO-10303-21;
