ISO-10303-21;
HEADER;
FILE_DESCRIPTION(('CoCreate Modeling STEP Export'),'2;1');
FILE_NAME('6199169.stp','2016-08-09T13:32:37',(''),(''),
'CoCreate Modeling STEP processor for AP214 (Solid Model)',
'CoCreate Modeling 16.00B  02-Dec-2008 (C) Parametric Technology GmbH',
'');
FILE_SCHEMA(('AUTOMOTIVE_DESIGN { 1 0 10303 214 1 1 1 1 }'));
ENDSEC;
DATA;
#10=CARTESIAN_POINT('',(0.,0.,0.));
#20=DIRECTION('',(-0.,1.,0.));
#30=DIRECTION('',(1.,0.,0.));
#40=AXIS2_PLACEMENT_3D('',#10,#20,#30);
#50=PLANE('',#40);
#60=CARTESIAN_POINT('',(22.,0.,0.));
#70=DIRECTION('',(-0.,-0.,1.));
#80=VECTOR('',#70,1.);
#90=LINE('',#60,#80);
#100=CARTESIAN_POINT('',(22.,0.,20.));
#110=VERTEX_POINT('',#100);
#120=CARTESIAN_POINT('',(22.,0.,22.));
#130=VERTEX_POINT('',#120);
#140=EDGE_CURVE('',#110,#130,#90,.T.);
#150=ORIENTED_EDGE('',*,*,#140,.T.);
#160=CARTESIAN_POINT('',(0.,-0.,20.));
#170=DIRECTION('',(-1.,0.,0.));
#180=VECTOR('',#170,1.);
#190=LINE('',#160,#180);
#200=CARTESIAN_POINT('',(2.,-0.,20.));
#210=VERTEX_POINT('',#200);
#220=EDGE_CURVE('',#110,#210,#190,.T.);
#230=ORIENTED_EDGE('',*,*,#220,.F.);
#240=CARTESIAN_POINT('',(2.,0.,0.));
#250=DIRECTION('',(-0.,-0.,1.));
#260=VECTOR('',#250,1.);
#270=LINE('',#240,#260);
#280=CARTESIAN_POINT('',(2.,0.,0.));
#290=VERTEX_POINT('',#280);
#300=EDGE_CURVE('',#290,#210,#270,.T.);
#310=ORIENTED_EDGE('',*,*,#300,.T.);
#320=CARTESIAN_POINT('',(2.,0.,0.));
#330=DIRECTION('',(-1.,0.,0.));
#340=VECTOR('',#330,2.);
#350=LINE('',#320,#340);
#360=CARTESIAN_POINT('',(0.,0.,0.));
#370=VERTEX_POINT('',#360);
#380=EDGE_CURVE('',#290,#370,#350,.T.);
#390=ORIENTED_EDGE('',*,*,#380,.F.);
#400=CARTESIAN_POINT('',(-0.,-0.,0.));
#410=DIRECTION('',(-0.,-0.,1.));
#420=VECTOR('',#410,1.);
#430=LINE('',#400,#420);
#440=CARTESIAN_POINT('',(0.,0.,22.));
#450=VERTEX_POINT('',#440);
#460=EDGE_CURVE('',#370,#450,#430,.T.);
#470=ORIENTED_EDGE('',*,*,#460,.F.);
#480=CARTESIAN_POINT('',(0.,-0.,22.));
#490=DIRECTION('',(1.,-0.,-0.));
#500=VECTOR('',#490,1.);
#510=LINE('',#480,#500);
#520=EDGE_CURVE('',#450,#130,#510,.T.);
#530=ORIENTED_EDGE('',*,*,#520,.F.);
#540=EDGE_LOOP('',(#530,#470,#390,#310,#230,#150));
#550=FACE_OUTER_BOUND('',#540,.T.);
#560=ADVANCED_FACE('',(#550),#50,.F.);
#570=CARTESIAN_POINT('',(0.,52.,0.));
#580=DIRECTION('',(-0.,1.,0.));
#590=DIRECTION('',(1.,0.,0.));
#600=AXIS2_PLACEMENT_3D('',#570,#580,#590);
#610=PLANE('',#600);
#620=CARTESIAN_POINT('',(22.,52.,0.));
#630=DIRECTION('',(-0.,-0.,1.));
#640=VECTOR('',#630,1.);
#650=LINE('',#620,#640);
#660=CARTESIAN_POINT('',(22.,52.,0.));
#670=VERTEX_POINT('',#660);
#680=CARTESIAN_POINT('',(22.,52.,22.));
#690=VERTEX_POINT('',#680);
#700=EDGE_CURVE('',#670,#690,#650,.T.);
#710=ORIENTED_EDGE('',*,*,#700,.F.);
#720=CARTESIAN_POINT('',(0.,52.,22.));
#730=DIRECTION('',(-1.,0.,0.));
#740=VECTOR('',#730,1.);
#750=LINE('',#720,#740);
#760=CARTESIAN_POINT('',(0.,52.,22.));
#770=VERTEX_POINT('',#760);
#780=EDGE_CURVE('',#690,#770,#750,.T.);
#790=ORIENTED_EDGE('',*,*,#780,.F.);
#800=CARTESIAN_POINT('',(0.,52.,0.));
#810=DIRECTION('',(0.,0.,1.));
#820=VECTOR('',#810,1.);
#830=LINE('',#800,#820);
#840=CARTESIAN_POINT('',(0.,52.,0.));
#850=VERTEX_POINT('',#840);
#860=EDGE_CURVE('',#850,#770,#830,.T.);
#870=ORIENTED_EDGE('',*,*,#860,.T.);
#880=CARTESIAN_POINT('',(0.,52.,-0.));
#890=DIRECTION('',(-1.,0.,-0.));
#900=VECTOR('',#890,1.);
#910=LINE('',#880,#900);
#920=EDGE_CURVE('',#670,#850,#910,.T.);
#930=ORIENTED_EDGE('',*,*,#920,.T.);
#940=EDGE_LOOP('',(#930,#870,#790,#710));
#950=FACE_OUTER_BOUND('',#940,.T.);
#960=ADVANCED_FACE('',(#950),#610,.T.);
#970=CARTESIAN_POINT('',(0.,0.,22.));
#980=DIRECTION('',(0.,0.,1.));
#990=DIRECTION('',(1.,0.,0.));
#1000=AXIS2_PLACEMENT_3D('',#970,#980,#990);
#1010=PLANE('',#1000);
#1020=ORIENTED_EDGE('',*,*,#520,.T.);
#1030=CARTESIAN_POINT('',(-0.,0.,22.));
#1040=DIRECTION('',(-0.,-1.,0.));
#1050=VECTOR('',#1040,1.);
#1060=LINE('',#1030,#1050);
#1070=EDGE_CURVE('',#770,#450,#1060,.T.);
#1080=ORIENTED_EDGE('',*,*,#1070,.T.);
#1090=ORIENTED_EDGE('',*,*,#780,.T.);
#1100=CARTESIAN_POINT('',(22.,0.,22.));
#1110=DIRECTION('',(-0.,-1.,0.));
#1120=VECTOR('',#1110,1.);
#1130=LINE('',#1100,#1120);
#1140=EDGE_CURVE('',#690,#130,#1130,.T.);
#1150=ORIENTED_EDGE('',*,*,#1140,.F.);
#1160=EDGE_LOOP('',(#1150,#1090,#1080,#1020));
#1170=FACE_OUTER_BOUND('',#1160,.T.);
#1180=ADVANCED_FACE('',(#1170),#1010,.T.);
#1190=CARTESIAN_POINT('',(0.,50.,0.));
#1200=DIRECTION('',(-0.,1.,0.));
#1210=DIRECTION('',(1.,0.,0.));
#1220=AXIS2_PLACEMENT_3D('',#1190,#1200,#1210);
#1230=PLANE('',#1220);
#1240=CARTESIAN_POINT('',(0.,50.,-0.));
#1250=DIRECTION('',(-1.,0.,-0.));
#1260=VECTOR('',#1250,1.);
#1270=LINE('',#1240,#1260);
#1280=CARTESIAN_POINT('',(22.,50.,0.));
#1290=VERTEX_POINT('',#1280);
#1300=CARTESIAN_POINT('',(2.,50.,0.));
#1310=VERTEX_POINT('',#1300);
#1320=EDGE_CURVE('',#1290,#1310,#1270,.T.);
#1330=ORIENTED_EDGE('',*,*,#1320,.F.);
#1340=CARTESIAN_POINT('',(2.,50.,0.));
#1350=DIRECTION('',(0.,0.,-1.));
#1360=VECTOR('',#1350,1.);
#1370=LINE('',#1340,#1360);
#1380=CARTESIAN_POINT('',(2.,50.,20.));
#1390=VERTEX_POINT('',#1380);
#1400=EDGE_CURVE('',#1390,#1310,#1370,.T.);
#1410=ORIENTED_EDGE('',*,*,#1400,.T.);
#1420=CARTESIAN_POINT('',(0.,50.,20.));
#1430=DIRECTION('',(-1.,0.,0.));
#1440=VECTOR('',#1430,1.);
#1450=LINE('',#1420,#1440);
#1460=CARTESIAN_POINT('',(22.,50.,20.));
#1470=VERTEX_POINT('',#1460);
#1480=EDGE_CURVE('',#1470,#1390,#1450,.T.);
#1490=ORIENTED_EDGE('',*,*,#1480,.T.);
#1500=CARTESIAN_POINT('',(22.,50.,0.));
#1510=DIRECTION('',(-0.,-0.,1.));
#1520=VECTOR('',#1510,1.);
#1530=LINE('',#1500,#1520);
#1540=EDGE_CURVE('',#1290,#1470,#1530,.T.);
#1550=ORIENTED_EDGE('',*,*,#1540,.T.);
#1560=EDGE_LOOP('',(#1550,#1490,#1410,#1330));
#1570=FACE_OUTER_BOUND('',#1560,.T.);
#1580=ADVANCED_FACE('',(#1570),#1230,.F.);
#1590=CARTESIAN_POINT('',(0.,0.,0.));
#1600=DIRECTION('',(-1.,0.,0.));
#1610=DIRECTION('',(0.,0.,1.));
#1620=AXIS2_PLACEMENT_3D('',#1590,#1600,#1610);
#1630=PLANE('',#1620);
#1640=ORIENTED_EDGE('',*,*,#1070,.F.);
#1650=ORIENTED_EDGE('',*,*,#460,.T.);
#1660=CARTESIAN_POINT('',(-0.,0.,-0.));
#1670=DIRECTION('',(-0.,1.,0.));
#1680=VECTOR('',#1670,1.);
#1690=LINE('',#1660,#1680);
#1700=EDGE_CURVE('',#370,#850,#1690,.T.);
#1710=ORIENTED_EDGE('',*,*,#1700,.F.);
#1720=ORIENTED_EDGE('',*,*,#860,.F.);
#1730=EDGE_LOOP('',(#1720,#1710,#1650,#1640));
#1740=FACE_OUTER_BOUND('',#1730,.T.);
#1750=ADVANCED_FACE('',(#1740),#1630,.T.);
#1760=CARTESIAN_POINT('',(9.,0.,0.));
#1770=DIRECTION('',(0.,0.,-1.));
#1780=DIRECTION('',(-1.,0.,0.));
#1790=AXIS2_PLACEMENT_3D('',#1760,#1770,#1780);
#1800=PLANE('',#1790);
#1810=ORIENTED_EDGE('',*,*,#920,.F.);
#1820=ORIENTED_EDGE('',*,*,#1700,.T.);
#1830=ORIENTED_EDGE('',*,*,#380,.T.);
#1840=CARTESIAN_POINT('',(2.,0.,0.));
#1850=DIRECTION('',(0.,1.,0.));
#1860=VECTOR('',#1850,1.);
#1870=LINE('',#1840,#1860);
#1880=EDGE_CURVE('',#290,#1310,#1870,.T.);
#1890=ORIENTED_EDGE('',*,*,#1880,.F.);
#1900=ORIENTED_EDGE('',*,*,#1320,.T.);
#1910=CARTESIAN_POINT('',(22.,0.,0.));
#1920=DIRECTION('',(0.,1.,0.));
#1930=VECTOR('',#1920,1.);
#1940=LINE('',#1910,#1930);
#1950=EDGE_CURVE('',#1290,#670,#1940,.T.);
#1960=ORIENTED_EDGE('',*,*,#1950,.F.);
#1970=EDGE_LOOP('',(#1960,#1900,#1890,#1830,#1820,#1810));
#1980=FACE_OUTER_BOUND('',#1970,.T.);
#1990=ADVANCED_FACE('',(#1980),#1800,.T.);
#2000=CARTESIAN_POINT('',(22.,0.,22.));
#2010=DIRECTION('',(1.,-0.,0.));
#2020=DIRECTION('',(0.,0.,-1.));
#2030=AXIS2_PLACEMENT_3D('',#2000,#2010,#2020);
#2040=PLANE('',#2030);
#2050=ORIENTED_EDGE('',*,*,#1140,.T.);
#2060=ORIENTED_EDGE('',*,*,#700,.T.);
#2070=ORIENTED_EDGE('',*,*,#1950,.T.);
#2080=ORIENTED_EDGE('',*,*,#1540,.F.);
#2090=CARTESIAN_POINT('',(22.,0.,20.));
#2100=DIRECTION('',(0.,1.,-0.));
#2110=VECTOR('',#2100,1.);
#2120=LINE('',#2090,#2110);
#2130=EDGE_CURVE('',#110,#1470,#2120,.T.);
#2140=ORIENTED_EDGE('',*,*,#2130,.T.);
#2150=ORIENTED_EDGE('',*,*,#140,.F.);
#2160=EDGE_LOOP('',(#2150,#2140,#2080,#2070,#2060,#2050));
#2170=FACE_OUTER_BOUND('',#2160,.T.);
#2180=ADVANCED_FACE('',(#2170),#2040,.T.);
#2190=CARTESIAN_POINT('',(0.,0.,20.));
#2200=DIRECTION('',(0.,0.,1.));
#2210=DIRECTION('',(1.,0.,0.));
#2220=AXIS2_PLACEMENT_3D('',#2190,#2200,#2210);
#2230=PLANE('',#2220);
#2240=ORIENTED_EDGE('',*,*,#2130,.F.);
#2250=ORIENTED_EDGE('',*,*,#1480,.F.);
#2260=CARTESIAN_POINT('',(2.,0.,20.));
#2270=DIRECTION('',(0.,1.,-0.));
#2280=VECTOR('',#2270,1.);
#2290=LINE('',#2260,#2280);
#2300=EDGE_CURVE('',#210,#1390,#2290,.T.);
#2310=ORIENTED_EDGE('',*,*,#2300,.T.);
#2320=ORIENTED_EDGE('',*,*,#220,.T.);
#2330=EDGE_LOOP('',(#2320,#2310,#2250,#2240));
#2340=FACE_OUTER_BOUND('',#2330,.T.);
#2350=ADVANCED_FACE('',(#2340),#2230,.F.);
#2360=CARTESIAN_POINT('',(2.,0.,0.));
#2370=DIRECTION('',(-1.,0.,0.));
#2380=DIRECTION('',(0.,0.,1.));
#2390=AXIS2_PLACEMENT_3D('',#2360,#2370,#2380);
#2400=PLANE('',#2390);
#2410=ORIENTED_EDGE('',*,*,#2300,.F.);
#2420=ORIENTED_EDGE('',*,*,#1400,.F.);
#2430=ORIENTED_EDGE('',*,*,#1880,.T.);
#2440=ORIENTED_EDGE('',*,*,#300,.F.);
#2450=EDGE_LOOP('',(#2440,#2430,#2420,#2410));
#2460=FACE_OUTER_BOUND('',#2450,.T.);
#2470=ADVANCED_FACE('',(#2460),#2400,.F.);
#2480=CLOSED_SHELL('',(#560,#960,#1180,#1580,#1750,#1990,#2180,#2350,
#2470));
#2490=MANIFOLD_SOLID_BREP('',#2480);
#2500=CARTESIAN_POINT('',(0.,0.,0.));
#2510=DIRECTION('',(0.,0.,1.));
#2520=DIRECTION('',(1.,0.,0.));
#2530=AXIS2_PLACEMENT_3D('',#2500,#2510,#2520);
#2540=APPLICATION_CONTEXT(' ');
#2550=APPLICATION_PROTOCOL_DEFINITION(' ','automotive_design',1998,#2540
);
#2560=PRODUCT_CONTEXT('',#2540,'mechanical');
#2570=PRODUCT_DEFINITION_CONTEXT('part definition',#2540,'design');
#2580=PRODUCT('SKL_EL_50D','SKL_EL_50D','',(#2560));
#2590=PRODUCT_RELATED_PRODUCT_CATEGORY('part',' ',(#2580));
#2600=PRODUCT_DEFINITION_FORMATION_WITH_SPECIFIED_SOURCE('','',#2580,
.BOUGHT.);
#2610=PRODUCT_DEFINITION('',' ',#2600,#2570);
#2620=PRODUCT_DEFINITION_SHAPE('','',#2610);
#2630=DIMENSIONAL_EXPONENTS(1.,0.,0.,0.,0.,0.,0.);
#2640=DIMENSIONAL_EXPONENTS(0.,0.,0.,0.,0.,0.,0.);
#2650=DIMENSIONAL_EXPONENTS(0.,0.,0.,0.,0.,0.,0.);
#2660=(LENGTH_UNIT() NAMED_UNIT(*) SI_UNIT(.MILLI.,.METRE.));
#2670=(NAMED_UNIT(*) PLANE_ANGLE_UNIT() SI_UNIT($,.RADIAN.));
#2680=(NAMED_UNIT(*) SI_UNIT($,.STERADIAN.) SOLID_ANGLE_UNIT());
#2690=(GEOMETRIC_REPRESENTATION_CONTEXT(3) 
GLOBAL_UNCERTAINTY_ASSIGNED_CONTEXT((#2700)) 
GLOBAL_UNIT_ASSIGNED_CONTEXT((#2660,#2670,#2680)) REPRESENTATION_CONTEXT
('',''));
#2700=UNCERTAINTY_MEASURE_WITH_UNIT(LENGTH_MEASURE(0.0023),#2660,
'distance_accuracy_value','maximum gap value');
#2710=ADVANCED_BREP_SHAPE_REPRESENTATION('',(#2530,#2490),#2690);
#2720=SHAPE_DEFINITION_REPRESENTATION(#2620,#2710);
#2730=COLOUR_RGB('',0.839215755462646,0.800000071525574,
0.639215707778931);
#2740=FILL_AREA_STYLE_COLOUR('',#2730);
#2750=FILL_AREA_STYLE('',(#2740));
#2760=SURFACE_STYLE_FILL_AREA(#2750);
#2770=SURFACE_SIDE_STYLE('',(#2760));
#2780=SURFACE_STYLE_USAGE(.BOTH.,#2770);
#2790=PRESENTATION_STYLE_ASSIGNMENT((#2780));
#2800=STYLED_ITEM('',(#2790),#2490);
#2810=DRAUGHTING_MODEL('',(#2800),#2690);
#2820=CARTESIAN_POINT('',(0.,0.,0.));
#2830=DIRECTION('',(0.,0.,1.));
#2840=DIRECTION('',(1.,0.,0.));
#2850=AXIS2_PLACEMENT_3D('',#2820,#2830,#2840);
#2860=ITEM_DEFINED_TRANSFORMATION('SKL_EL_50D','',#2530,#2850);
#2870=APPLICATION_CONTEXT(' ');
#2880=APPLICATION_PROTOCOL_DEFINITION(' ','automotive_design',1998,#2870
);
#2890=PRODUCT_CONTEXT('',#2870,'mechanical');
#2900=PRODUCT_DEFINITION_CONTEXT('part definition',#2870,'design');
#2910=PRODUCT('skl_el_50d.stp.1','skl_el_50d.stp.1','',(#2890));
#2920=PRODUCT_RELATED_PRODUCT_CATEGORY('part',' ',(#2910));
#2930=PRODUCT_DEFINITION_FORMATION_WITH_SPECIFIED_SOURCE('','',#2910,
.BOUGHT.);
#2940=PRODUCT_DEFINITION('',' ',#2930,#2900);
#2950=PRODUCT_DEFINITION_SHAPE('','',#2940);
#2960=DIMENSIONAL_EXPONENTS(1.,0.,0.,0.,0.,0.,0.);
#2970=DIMENSIONAL_EXPONENTS(0.,0.,0.,0.,0.,0.,0.);
#2980=DIMENSIONAL_EXPONENTS(0.,0.,0.,0.,0.,0.,0.);
#2990=(LENGTH_UNIT() NAMED_UNIT(*) SI_UNIT(.MILLI.,.METRE.));
#3000=(NAMED_UNIT(*) PLANE_ANGLE_UNIT() SI_UNIT($,.RADIAN.));
#3010=(NAMED_UNIT(*) SI_UNIT($,.STERADIAN.) SOLID_ANGLE_UNIT());
#3020=(GEOMETRIC_REPRESENTATION_CONTEXT(3) 
GLOBAL_UNCERTAINTY_ASSIGNED_CONTEXT((#3030)) 
GLOBAL_UNIT_ASSIGNED_CONTEXT((#2990,#3000,#3010)) REPRESENTATION_CONTEXT
('',''));
#3030=UNCERTAINTY_MEASURE_WITH_UNIT(LENGTH_MEASURE(0.0023),#2990,
'distance_accuracy_value','maximum gap value');
#3040=SHAPE_REPRESENTATION('',(#2530,#2850),#3020);
#3050=SHAPE_DEFINITION_REPRESENTATION(#2950,#3040);
#3060=(REPRESENTATION_RELATIONSHIP('','',#2710,#3040) 
REPRESENTATION_RELATIONSHIP_WITH_TRANSFORMATION(#2860) 
SHAPE_REPRESENTATION_RELATIONSHIP());
#3070=NEXT_ASSEMBLY_USAGE_OCCURRENCE('1','','SKL_EL_50D',#2940,#2610,'')
;
#3080=PRODUCT_DEFINITION_SHAPE('','',#3070);
#3090=CONTEXT_DEPENDENT_SHAPE_REPRESENTATION(#3060,#3080);
ENDSEC;
END-ISO-10303-21;
