ISO-10303-21;
HEADER;
FILE_DESCRIPTION(('CoCreate Modeling STEP Export'),'2;1');
FILE_NAME('6199139.stp','2016-08-09T13:12:50',(''),(''),
'CoCreate Modeling STEP processor for AP214 (Solid Model)',
'CoCreate Modeling 16.00B  02-Dec-2008 (C) Parametric Technology GmbH',
'');
FILE_SCHEMA(('AUTOMOTIVE_DESIGN { 1 0 10303 214 1 1 1 1 }'));
ENDSEC;
DATA;
#10=CARTESIAN_POINT('',(0.,0.,0.));
#20=DIRECTION('',(-0.,1.,0.));
#30=DIRECTION('',(1.,0.,0.));
#40=AXIS2_PLACEMENT_3D('',#10,#20,#30);
#50=PLANE('',#40);
#60=CARTESIAN_POINT('',(0.,0.,-20.));
#70=DIRECTION('',(1.,0.,-0.));
#80=VECTOR('',#70,1.);
#90=LINE('',#60,#80);
#100=CARTESIAN_POINT('',(-22.,0.,-20.));
#110=VERTEX_POINT('',#100);
#120=CARTESIAN_POINT('',(-20.,0.,-20.));
#130=VERTEX_POINT('',#120);
#140=EDGE_CURVE('',#110,#130,#90,.T.);
#150=ORIENTED_EDGE('',*,*,#140,.T.);
#160=CARTESIAN_POINT('',(-22.,0.,0.));
#170=DIRECTION('',(-0.,0.,-1.));
#180=VECTOR('',#170,1.);
#190=LINE('',#160,#180);
#200=CARTESIAN_POINT('',(-22.,0.,22.));
#210=VERTEX_POINT('',#200);
#220=EDGE_CURVE('',#210,#110,#190,.T.);
#230=ORIENTED_EDGE('',*,*,#220,.T.);
#240=CARTESIAN_POINT('',(0.,-0.,22.));
#250=DIRECTION('',(1.,-0.,-0.));
#260=VECTOR('',#250,1.);
#270=LINE('',#240,#260);
#280=CARTESIAN_POINT('',(20.,0.,22.));
#290=VERTEX_POINT('',#280);
#300=EDGE_CURVE('',#210,#290,#270,.T.);
#310=ORIENTED_EDGE('',*,*,#300,.F.);
#320=CARTESIAN_POINT('',(20.,0.,0.));
#330=DIRECTION('',(-0.,-0.,1.));
#340=VECTOR('',#330,1.);
#350=LINE('',#320,#340);
#360=CARTESIAN_POINT('',(20.,0.,20.));
#370=VERTEX_POINT('',#360);
#380=EDGE_CURVE('',#370,#290,#350,.T.);
#390=ORIENTED_EDGE('',*,*,#380,.T.);
#400=CARTESIAN_POINT('',(0.,-0.,20.));
#410=DIRECTION('',(-1.,0.,0.));
#420=VECTOR('',#410,1.);
#430=LINE('',#400,#420);
#440=CARTESIAN_POINT('',(-20.,-0.,20.));
#450=VERTEX_POINT('',#440);
#460=EDGE_CURVE('',#370,#450,#430,.T.);
#470=ORIENTED_EDGE('',*,*,#460,.F.);
#480=CARTESIAN_POINT('',(-20.,0.,0.));
#490=DIRECTION('',(0.,-0.,1.));
#500=VECTOR('',#490,1.);
#510=LINE('',#480,#500);
#520=EDGE_CURVE('',#130,#450,#510,.T.);
#530=ORIENTED_EDGE('',*,*,#520,.T.);
#540=EDGE_LOOP('',(#530,#470,#390,#310,#230,#150));
#550=FACE_OUTER_BOUND('',#540,.T.);
#560=ADVANCED_FACE('',(#550),#50,.F.);
#570=CARTESIAN_POINT('',(-22.,0.,20.));
#580=DIRECTION('',(0.,0.,1.));
#590=DIRECTION('',(1.,0.,0.));
#600=AXIS2_PLACEMENT_3D('',#570,#580,#590);
#610=PLANE('',#600);
#620=CARTESIAN_POINT('',(20.,0.,20.));
#630=DIRECTION('',(-0.,1.,-0.));
#640=VECTOR('',#630,1.);
#650=LINE('',#620,#640);
#660=CARTESIAN_POINT('',(20.,50.,20.));
#670=VERTEX_POINT('',#660);
#680=EDGE_CURVE('',#370,#670,#650,.T.);
#690=ORIENTED_EDGE('',*,*,#680,.F.);
#700=CARTESIAN_POINT('',(0.,50.,20.));
#710=DIRECTION('',(-1.,0.,0.));
#720=VECTOR('',#710,1.);
#730=LINE('',#700,#720);
#740=CARTESIAN_POINT('',(-20.,50.,20.));
#750=VERTEX_POINT('',#740);
#760=EDGE_CURVE('',#670,#750,#730,.T.);
#770=ORIENTED_EDGE('',*,*,#760,.F.);
#780=CARTESIAN_POINT('',(-20.,0.,20.));
#790=DIRECTION('',(0.,-1.,0.));
#800=VECTOR('',#790,1.);
#810=LINE('',#780,#800);
#820=EDGE_CURVE('',#750,#450,#810,.T.);
#830=ORIENTED_EDGE('',*,*,#820,.F.);
#840=ORIENTED_EDGE('',*,*,#460,.T.);
#850=EDGE_LOOP('',(#840,#830,#770,#690));
#860=FACE_OUTER_BOUND('',#850,.T.);
#870=ADVANCED_FACE('',(#860),#610,.F.);
#880=CARTESIAN_POINT('',(20.,0.,22.));
#890=DIRECTION('',(1.,-0.,0.));
#900=DIRECTION('',(0.,0.,-1.));
#910=AXIS2_PLACEMENT_3D('',#880,#890,#900);
#920=PLANE('',#910);
#930=CARTESIAN_POINT('',(20.,0.,22.));
#940=DIRECTION('',(-0.,1.,-0.));
#950=VECTOR('',#940,1.);
#960=LINE('',#930,#950);
#970=CARTESIAN_POINT('',(20.,52.,22.));
#980=VERTEX_POINT('',#970);
#990=EDGE_CURVE('',#290,#980,#960,.T.);
#1000=ORIENTED_EDGE('',*,*,#990,.F.);
#1010=CARTESIAN_POINT('',(20.,52.,0.));
#1020=DIRECTION('',(0.,0.,-1.));
#1030=VECTOR('',#1020,1.);
#1040=LINE('',#1010,#1030);
#1050=CARTESIAN_POINT('',(20.,52.,1.));
#1060=VERTEX_POINT('',#1050);
#1070=EDGE_CURVE('',#980,#1060,#1040,.T.);
#1080=ORIENTED_EDGE('',*,*,#1070,.F.);
#1090=CARTESIAN_POINT('',(20.,0.,1.));
#1100=DIRECTION('',(-0.,1.,0.));
#1110=VECTOR('',#1100,1.);
#1120=LINE('',#1090,#1110);
#1130=CARTESIAN_POINT('',(20.,50.,1.));
#1140=VERTEX_POINT('',#1130);
#1150=EDGE_CURVE('',#1140,#1060,#1120,.T.);
#1160=ORIENTED_EDGE('',*,*,#1150,.T.);
#1170=CARTESIAN_POINT('',(20.,50.,0.));
#1180=DIRECTION('',(0.,-0.,1.));
#1190=VECTOR('',#1180,1.);
#1200=LINE('',#1170,#1190);
#1210=EDGE_CURVE('',#1140,#670,#1200,.T.);
#1220=ORIENTED_EDGE('',*,*,#1210,.F.);
#1230=ORIENTED_EDGE('',*,*,#680,.T.);
#1240=ORIENTED_EDGE('',*,*,#380,.F.);
#1250=EDGE_LOOP('',(#1240,#1230,#1220,#1160,#1080,#1000));
#1260=FACE_OUTER_BOUND('',#1250,.T.);
#1270=ADVANCED_FACE('',(#1260),#920,.T.);
#1280=CARTESIAN_POINT('',(7.,0.,1.));
#1290=DIRECTION('',(1.,-0.,0.));
#1300=DIRECTION('',(0.,0.,-1.));
#1310=AXIS2_PLACEMENT_3D('',#1280,#1290,#1300);
#1320=PLANE('',#1310);
#1330=CARTESIAN_POINT('',(7.,50.,1.));
#1340=DIRECTION('',(0.,1.,0.));
#1350=VECTOR('',#1340,2.);
#1360=LINE('',#1330,#1350);
#1370=CARTESIAN_POINT('',(7.,50.,1.));
#1380=VERTEX_POINT('',#1370);
#1390=CARTESIAN_POINT('',(7.,52.,1.));
#1400=VERTEX_POINT('',#1390);
#1410=EDGE_CURVE('',#1380,#1400,#1360,.T.);
#1420=ORIENTED_EDGE('',*,*,#1410,.F.);
#1430=CARTESIAN_POINT('',(7.,52.,1.));
#1440=DIRECTION('',(0.,0.,-1.));
#1450=VECTOR('',#1440,1.);
#1460=LINE('',#1430,#1450);
#1470=CARTESIAN_POINT('',(7.,52.,0.));
#1480=VERTEX_POINT('',#1470);
#1490=EDGE_CURVE('',#1400,#1480,#1460,.T.);
#1500=ORIENTED_EDGE('',*,*,#1490,.F.);
#1510=CARTESIAN_POINT('',(7.,50.,0.));
#1520=DIRECTION('',(0.,1.,0.));
#1530=VECTOR('',#1520,2.);
#1540=LINE('',#1510,#1530);
#1550=CARTESIAN_POINT('',(7.,50.,0.));
#1560=VERTEX_POINT('',#1550);
#1570=EDGE_CURVE('',#1560,#1480,#1540,.T.);
#1580=ORIENTED_EDGE('',*,*,#1570,.T.);
#1590=CARTESIAN_POINT('',(7.,50.,1.));
#1600=DIRECTION('',(0.,0.,-1.));
#1610=VECTOR('',#1600,1.);
#1620=LINE('',#1590,#1610);
#1630=EDGE_CURVE('',#1380,#1560,#1620,.T.);
#1640=ORIENTED_EDGE('',*,*,#1630,.T.);
#1650=EDGE_LOOP('',(#1640,#1580,#1500,#1420));
#1660=FACE_OUTER_BOUND('',#1650,.T.);
#1670=ADVANCED_FACE('',(#1660),#1320,.T.);
#1680=CARTESIAN_POINT('',(7.,0.,0.));
#1690=DIRECTION('',(0.,0.,-1.));
#1700=DIRECTION('',(-1.,0.,0.));
#1710=AXIS2_PLACEMENT_3D('',#1680,#1690,#1700);
#1720=PLANE('',#1710);
#1730=CARTESIAN_POINT('',(7.,50.,0.));
#1740=DIRECTION('',(-1.,0.,0.));
#1750=VECTOR('',#1740,7.);
#1760=LINE('',#1730,#1750);
#1770=CARTESIAN_POINT('',(0.,50.,0.));
#1780=VERTEX_POINT('',#1770);
#1790=EDGE_CURVE('',#1560,#1780,#1760,.T.);
#1800=ORIENTED_EDGE('',*,*,#1790,.T.);
#1810=ORIENTED_EDGE('',*,*,#1570,.F.);
#1820=CARTESIAN_POINT('',(7.,52.,0.));
#1830=DIRECTION('',(-1.,0.,0.));
#1840=VECTOR('',#1830,7.);
#1850=LINE('',#1820,#1840);
#1860=CARTESIAN_POINT('',(0.,52.,0.));
#1870=VERTEX_POINT('',#1860);
#1880=EDGE_CURVE('',#1480,#1870,#1850,.T.);
#1890=ORIENTED_EDGE('',*,*,#1880,.F.);
#1900=CARTESIAN_POINT('',(0.,52.,0.));
#1910=DIRECTION('',(0.,-1.,0.));
#1920=VECTOR('',#1910,2.);
#1930=LINE('',#1900,#1920);
#1940=EDGE_CURVE('',#1870,#1780,#1930,.T.);
#1950=ORIENTED_EDGE('',*,*,#1940,.F.);
#1960=EDGE_LOOP('',(#1950,#1890,#1810,#1800));
#1970=FACE_OUTER_BOUND('',#1960,.T.);
#1980=ADVANCED_FACE('',(#1970),#1720,.T.);
#1990=CARTESIAN_POINT('',(20.,0.,1.));
#2000=DIRECTION('',(0.,0.,-1.));
#2010=DIRECTION('',(-1.,0.,0.));
#2020=AXIS2_PLACEMENT_3D('',#1990,#2000,#2010);
#2030=PLANE('',#2020);
#2040=CARTESIAN_POINT('',(0.,52.,1.));
#2050=DIRECTION('',(-1.,0.,-0.));
#2060=VECTOR('',#2050,1.);
#2070=LINE('',#2040,#2060);
#2080=EDGE_CURVE('',#1060,#1400,#2070,.T.);
#2090=ORIENTED_EDGE('',*,*,#2080,.F.);
#2100=ORIENTED_EDGE('',*,*,#1410,.T.);
#2110=CARTESIAN_POINT('',(20.,50.,1.));
#2120=DIRECTION('',(-1.,0.,0.));
#2130=VECTOR('',#2120,13.);
#2140=LINE('',#2110,#2130);
#2150=EDGE_CURVE('',#1140,#1380,#2140,.T.);
#2160=ORIENTED_EDGE('',*,*,#2150,.T.);
#2170=ORIENTED_EDGE('',*,*,#1150,.F.);
#2180=EDGE_LOOP('',(#2170,#2160,#2100,#2090));
#2190=FACE_OUTER_BOUND('',#2180,.T.);
#2200=ADVANCED_FACE('',(#2190),#2030,.T.);
#2210=CARTESIAN_POINT('',(0.,52.,0.));
#2220=DIRECTION('',(-0.,1.,0.));
#2230=DIRECTION('',(1.,0.,0.));
#2240=AXIS2_PLACEMENT_3D('',#2210,#2220,#2230);
#2250=PLANE('',#2240);
#2260=CARTESIAN_POINT('',(-1.,52.,0.));
#2270=DIRECTION('',(0.,0.,1.));
#2280=VECTOR('',#2270,1.);
#2290=LINE('',#2260,#2280);
#2300=CARTESIAN_POINT('',(-1.,52.,-20.));
#2310=VERTEX_POINT('',#2300);
#2320=CARTESIAN_POINT('',(-1.,52.,-7.));
#2330=VERTEX_POINT('',#2320);
#2340=EDGE_CURVE('',#2310,#2330,#2290,.T.);
#2350=ORIENTED_EDGE('',*,*,#2340,.F.);
#2360=CARTESIAN_POINT('',(-1.,52.,-7.));
#2370=DIRECTION('',(1.,0.,0.));
#2380=VECTOR('',#2370,1.);
#2390=LINE('',#2360,#2380);
#2400=CARTESIAN_POINT('',(0.,52.,-7.));
#2410=VERTEX_POINT('',#2400);
#2420=EDGE_CURVE('',#2330,#2410,#2390,.T.);
#2430=ORIENTED_EDGE('',*,*,#2420,.F.);
#2440=CARTESIAN_POINT('',(0.,52.,-7.));
#2450=DIRECTION('',(0.,0.,1.));
#2460=VECTOR('',#2450,7.);
#2470=LINE('',#2440,#2460);
#2480=EDGE_CURVE('',#2410,#1870,#2470,.T.);
#2490=ORIENTED_EDGE('',*,*,#2480,.F.);
#2500=ORIENTED_EDGE('',*,*,#1880,.T.);
#2510=ORIENTED_EDGE('',*,*,#1490,.T.);
#2520=ORIENTED_EDGE('',*,*,#2080,.T.);
#2530=ORIENTED_EDGE('',*,*,#1070,.T.);
#2540=CARTESIAN_POINT('',(0.,52.,22.));
#2550=DIRECTION('',(1.,-0.,-0.));
#2560=VECTOR('',#2550,1.);
#2570=LINE('',#2540,#2560);
#2580=CARTESIAN_POINT('',(-22.,52.,22.));
#2590=VERTEX_POINT('',#2580);
#2600=EDGE_CURVE('',#2590,#980,#2570,.T.);
#2610=ORIENTED_EDGE('',*,*,#2600,.T.);
#2620=CARTESIAN_POINT('',(-22.,52.,0.));
#2630=DIRECTION('',(0.,-0.,1.));
#2640=VECTOR('',#2630,1.);
#2650=LINE('',#2620,#2640);
#2660=CARTESIAN_POINT('',(-22.,52.,-20.));
#2670=VERTEX_POINT('',#2660);
#2680=EDGE_CURVE('',#2670,#2590,#2650,.T.);
#2690=ORIENTED_EDGE('',*,*,#2680,.T.);
#2700=CARTESIAN_POINT('',(0.,52.,-20.));
#2710=DIRECTION('',(1.,-0.,-0.));
#2720=VECTOR('',#2710,1.);
#2730=LINE('',#2700,#2720);
#2740=EDGE_CURVE('',#2670,#2310,#2730,.T.);
#2750=ORIENTED_EDGE('',*,*,#2740,.F.);
#2760=EDGE_LOOP('',(#2750,#2690,#2610,#2530,#2520,#2510,#2500,#2490,
#2430,#2350));
#2770=FACE_OUTER_BOUND('',#2760,.T.);
#2780=ADVANCED_FACE('',(#2770),#2250,.T.);
#2790=CARTESIAN_POINT('',(-22.,0.,22.));
#2800=DIRECTION('',(0.,0.,1.));
#2810=DIRECTION('',(1.,0.,0.));
#2820=AXIS2_PLACEMENT_3D('',#2790,#2800,#2810);
#2830=PLANE('',#2820);
#2840=ORIENTED_EDGE('',*,*,#300,.T.);
#2850=CARTESIAN_POINT('',(-22.,0.,22.));
#2860=DIRECTION('',(0.,-1.,0.));
#2870=VECTOR('',#2860,1.);
#2880=LINE('',#2850,#2870);
#2890=EDGE_CURVE('',#2590,#210,#2880,.T.);
#2900=ORIENTED_EDGE('',*,*,#2890,.T.);
#2910=ORIENTED_EDGE('',*,*,#2600,.F.);
#2920=ORIENTED_EDGE('',*,*,#990,.T.);
#2930=EDGE_LOOP('',(#2920,#2910,#2900,#2840));
#2940=FACE_OUTER_BOUND('',#2930,.T.);
#2950=ADVANCED_FACE('',(#2940),#2830,.T.);
#2960=CARTESIAN_POINT('',(-1.,0.,-7.));
#2970=DIRECTION('',(0.,0.,1.));
#2980=DIRECTION('',(1.,0.,0.));
#2990=AXIS2_PLACEMENT_3D('',#2960,#2970,#2980);
#3000=PLANE('',#2990);
#3010=CARTESIAN_POINT('',(0.,50.,-7.));
#3020=DIRECTION('',(0.,1.,0.));
#3030=VECTOR('',#3020,2.);
#3040=LINE('',#3010,#3030);
#3050=CARTESIAN_POINT('',(0.,50.,-7.));
#3060=VERTEX_POINT('',#3050);
#3070=EDGE_CURVE('',#3060,#2410,#3040,.T.);
#3080=ORIENTED_EDGE('',*,*,#3070,.F.);
#3090=ORIENTED_EDGE('',*,*,#2420,.T.);
#3100=CARTESIAN_POINT('',(-1.,50.,-7.));
#3110=DIRECTION('',(0.,1.,0.));
#3120=VECTOR('',#3110,2.);
#3130=LINE('',#3100,#3120);
#3140=CARTESIAN_POINT('',(-1.,50.,-7.));
#3150=VERTEX_POINT('',#3140);
#3160=EDGE_CURVE('',#3150,#2330,#3130,.T.);
#3170=ORIENTED_EDGE('',*,*,#3160,.T.);
#3180=CARTESIAN_POINT('',(-1.,50.,-7.));
#3190=DIRECTION('',(1.,0.,0.));
#3200=VECTOR('',#3190,1.);
#3210=LINE('',#3180,#3200);
#3220=EDGE_CURVE('',#3150,#3060,#3210,.T.);
#3230=ORIENTED_EDGE('',*,*,#3220,.F.);
#3240=EDGE_LOOP('',(#3230,#3170,#3090,#3080));
#3250=FACE_OUTER_BOUND('',#3240,.T.);
#3260=ADVANCED_FACE('',(#3250),#3000,.F.);
#3270=CARTESIAN_POINT('',(0.,0.,-7.));
#3280=DIRECTION('',(-1.,0.,0.));
#3290=DIRECTION('',(0.,0.,1.));
#3300=AXIS2_PLACEMENT_3D('',#3270,#3280,#3290);
#3310=PLANE('',#3300);
#3320=ORIENTED_EDGE('',*,*,#2480,.T.);
#3330=ORIENTED_EDGE('',*,*,#3070,.T.);
#3340=CARTESIAN_POINT('',(0.,50.,-7.));
#3350=DIRECTION('',(0.,0.,1.));
#3360=VECTOR('',#3350,7.);
#3370=LINE('',#3340,#3360);
#3380=EDGE_CURVE('',#3060,#1780,#3370,.T.);
#3390=ORIENTED_EDGE('',*,*,#3380,.F.);
#3400=ORIENTED_EDGE('',*,*,#1940,.T.);
#3410=EDGE_LOOP('',(#3400,#3390,#3330,#3320));
#3420=FACE_OUTER_BOUND('',#3410,.T.);
#3430=ADVANCED_FACE('',(#3420),#3310,.F.);
#3440=CARTESIAN_POINT('',(-20.,0.,22.));
#3450=DIRECTION('',(1.,-0.,0.));
#3460=DIRECTION('',(0.,0.,-1.));
#3470=AXIS2_PLACEMENT_3D('',#3440,#3450,#3460);
#3480=PLANE('',#3470);
#3490=ORIENTED_EDGE('',*,*,#520,.F.);
#3500=ORIENTED_EDGE('',*,*,#820,.T.);
#3510=CARTESIAN_POINT('',(-20.,50.,0.));
#3520=DIRECTION('',(0.,-0.,1.));
#3530=VECTOR('',#3520,1.);
#3540=LINE('',#3510,#3530);
#3550=CARTESIAN_POINT('',(-20.,50.,-20.));
#3560=VERTEX_POINT('',#3550);
#3570=EDGE_CURVE('',#3560,#750,#3540,.T.);
#3580=ORIENTED_EDGE('',*,*,#3570,.T.);
#3590=CARTESIAN_POINT('',(-20.,0.,-20.));
#3600=DIRECTION('',(0.,1.,-0.));
#3610=VECTOR('',#3600,1.);
#3620=LINE('',#3590,#3610);
#3630=EDGE_CURVE('',#130,#3560,#3620,.T.);
#3640=ORIENTED_EDGE('',*,*,#3630,.T.);
#3650=EDGE_LOOP('',(#3640,#3580,#3500,#3490));
#3660=FACE_OUTER_BOUND('',#3650,.T.);
#3670=ADVANCED_FACE('',(#3660),#3480,.T.);
#3680=CARTESIAN_POINT('',(0.,50.,0.));
#3690=DIRECTION('',(-0.,1.,0.));
#3700=DIRECTION('',(1.,0.,0.));
#3710=AXIS2_PLACEMENT_3D('',#3680,#3690,#3700);
#3720=PLANE('',#3710);
#3730=ORIENTED_EDGE('',*,*,#3570,.F.);
#3740=ORIENTED_EDGE('',*,*,#760,.T.);
#3750=ORIENTED_EDGE('',*,*,#1210,.T.);
#3760=ORIENTED_EDGE('',*,*,#2150,.F.);
#3770=ORIENTED_EDGE('',*,*,#1630,.F.);
#3780=ORIENTED_EDGE('',*,*,#1790,.F.);
#3790=ORIENTED_EDGE('',*,*,#3380,.T.);
#3800=ORIENTED_EDGE('',*,*,#3220,.T.);
#3810=CARTESIAN_POINT('',(-1.,50.,-20.));
#3820=DIRECTION('',(0.,0.,1.));
#3830=VECTOR('',#3820,13.);
#3840=LINE('',#3810,#3830);
#3850=CARTESIAN_POINT('',(-1.,50.,-20.));
#3860=VERTEX_POINT('',#3850);
#3870=EDGE_CURVE('',#3860,#3150,#3840,.T.);
#3880=ORIENTED_EDGE('',*,*,#3870,.T.);
#3890=CARTESIAN_POINT('',(0.,50.,-20.));
#3900=DIRECTION('',(-1.,0.,0.));
#3910=VECTOR('',#3900,1.);
#3920=LINE('',#3890,#3910);
#3930=EDGE_CURVE('',#3860,#3560,#3920,.T.);
#3940=ORIENTED_EDGE('',*,*,#3930,.F.);
#3950=EDGE_LOOP('',(#3940,#3880,#3800,#3790,#3780,#3770,#3760,#3750,
#3740,#3730));
#3960=FACE_OUTER_BOUND('',#3950,.T.);
#3970=ADVANCED_FACE('',(#3960),#3720,.F.);
#3980=CARTESIAN_POINT('',(-1.,0.,-20.));
#3990=DIRECTION('',(-1.,0.,0.));
#4000=DIRECTION('',(0.,0.,1.));
#4010=AXIS2_PLACEMENT_3D('',#3980,#3990,#4000);
#4020=PLANE('',#4010);
#4030=CARTESIAN_POINT('',(-1.,0.,-20.));
#4040=DIRECTION('',(0.,1.,-0.));
#4050=VECTOR('',#4040,1.);
#4060=LINE('',#4030,#4050);
#4070=EDGE_CURVE('',#3860,#2310,#4060,.T.);
#4080=ORIENTED_EDGE('',*,*,#4070,.T.);
#4090=ORIENTED_EDGE('',*,*,#3870,.F.);
#4100=ORIENTED_EDGE('',*,*,#3160,.F.);
#4110=ORIENTED_EDGE('',*,*,#2340,.T.);
#4120=EDGE_LOOP('',(#4110,#4100,#4090,#4080));
#4130=FACE_OUTER_BOUND('',#4120,.T.);
#4140=ADVANCED_FACE('',(#4130),#4020,.F.);
#4150=CARTESIAN_POINT('',(-22.,0.,-20.));
#4160=DIRECTION('',(0.,0.,1.));
#4170=DIRECTION('',(1.,0.,0.));
#4180=AXIS2_PLACEMENT_3D('',#4150,#4160,#4170);
#4190=PLANE('',#4180);
#4200=ORIENTED_EDGE('',*,*,#3630,.F.);
#4210=ORIENTED_EDGE('',*,*,#3930,.T.);
#4220=ORIENTED_EDGE('',*,*,#4070,.F.);
#4230=ORIENTED_EDGE('',*,*,#2740,.T.);
#4240=CARTESIAN_POINT('',(-22.,0.,-20.));
#4250=DIRECTION('',(-0.,1.,-0.));
#4260=VECTOR('',#4250,1.);
#4270=LINE('',#4240,#4260);
#4280=EDGE_CURVE('',#110,#2670,#4270,.T.);
#4290=ORIENTED_EDGE('',*,*,#4280,.T.);
#4300=ORIENTED_EDGE('',*,*,#140,.F.);
#4310=EDGE_LOOP('',(#4300,#4290,#4230,#4220,#4210,#4200));
#4320=FACE_OUTER_BOUND('',#4310,.T.);
#4330=ADVANCED_FACE('',(#4320),#4190,.F.);
#4340=CARTESIAN_POINT('',(-22.,0.,22.));
#4350=DIRECTION('',(1.,-0.,0.));
#4360=DIRECTION('',(0.,0.,-1.));
#4370=AXIS2_PLACEMENT_3D('',#4340,#4350,#4360);
#4380=PLANE('',#4370);
#4390=ORIENTED_EDGE('',*,*,#4280,.F.);
#4400=ORIENTED_EDGE('',*,*,#2680,.F.);
#4410=ORIENTED_EDGE('',*,*,#2890,.F.);
#4420=ORIENTED_EDGE('',*,*,#220,.F.);
#4430=EDGE_LOOP('',(#4420,#4410,#4400,#4390));
#4440=FACE_OUTER_BOUND('',#4430,.T.);
#4450=ADVANCED_FACE('',(#4440),#4380,.F.);
#4460=CLOSED_SHELL('',(#560,#870,#1270,#1670,#1980,#2200,#2780,#2950,
#3260,#3430,#3670,#3970,#4140,#4330,#4450));
#4470=MANIFOLD_SOLID_BREP('',#4460);
#4480=CARTESIAN_POINT('',(0.,0.,0.));
#4490=DIRECTION('',(0.,0.,1.));
#4500=DIRECTION('',(1.,0.,0.));
#4510=AXIS2_PLACEMENT_3D('',#4480,#4490,#4500);
#4520=APPLICATION_CONTEXT(' ');
#4530=APPLICATION_PROTOCOL_DEFINITION(' ','automotive_design',10000,
#4520);
#4540=PRODUCT_CONTEXT('',#4520,'mechanical');
#4550=PRODUCT_DEFINITION_CONTEXT('part definition',#4520,'design');
#4560=PRODUCT('SKL_A_50D.1','SKL_A_50D.1','NOT SPECIFIED',(#4540));
#4570=PRODUCT_RELATED_PRODUCT_CATEGORY('part',' ',(#4560));
#4580=PRODUCT_DEFINITION_FORMATION_WITH_SPECIFIED_SOURCE('3',
'LAST_VERSION',#4560,.BOUGHT.);
#4590=PRODUCT_DEFINITION('',' ',#4580,#4550);
#4600=PRODUCT_DEFINITION_SHAPE('','SHAPE FOR SKL_A_50D.',#4590);
#4610=DIMENSIONAL_EXPONENTS(1.,0.,0.,0.,0.,0.,0.);
#4620=DIMENSIONAL_EXPONENTS(0.,0.,0.,0.,0.,0.,0.);
#4630=DIMENSIONAL_EXPONENTS(0.,0.,0.,0.,0.,0.,0.);
#4640=(LENGTH_UNIT() NAMED_UNIT(*) SI_UNIT(.MILLI.,.METRE.));
#4650=(NAMED_UNIT(*) PLANE_ANGLE_UNIT() SI_UNIT($,.RADIAN.));
#4660=(NAMED_UNIT(*) SI_UNIT($,.STERADIAN.) SOLID_ANGLE_UNIT());
#4670=(GEOMETRIC_REPRESENTATION_CONTEXT(3) 
GLOBAL_UNCERTAINTY_ASSIGNED_CONTEXT((#4680)) 
GLOBAL_UNIT_ASSIGNED_CONTEXT((#4640,#4650,#4660)) REPRESENTATION_CONTEXT
('',''));
#4680=UNCERTAINTY_MEASURE_WITH_UNIT(LENGTH_MEASURE(0.0023),#4640,
'distance_accuracy_value','maximum gap value');
#4690=ADVANCED_BREP_SHAPE_REPRESENTATION('',(#4510,#4470),#4670);
#4700=SHAPE_DEFINITION_REPRESENTATION(#4600,#4690);
#4710=COLOUR_RGB('',0.839215755462646,0.800000071525574,
0.639215707778931);
#4720=FILL_AREA_STYLE_COLOUR('',#4710);
#4730=FILL_AREA_STYLE('',(#4720));
#4740=SURFACE_STYLE_FILL_AREA(#4730);
#4750=SURFACE_SIDE_STYLE('',(#4740));
#4760=SURFACE_STYLE_USAGE(.BOTH.,#4750);
#4770=PRESENTATION_STYLE_ASSIGNMENT((#4760));
#4780=STYLED_ITEM('',(#4770),#4470);
#4790=DRAUGHTING_MODEL('',(#4780),#4670);
ENDSEC;
END-ISO-10303-21;
