ISO-10303-21;
HEADER;
FILE_DESCRIPTION (( 'STEP AP214' ),
    '1' );
FILE_NAME ('6183956.stp',
    '2016-08-10T13:03:46',
    ( '' ),
    ( '' ),
    'SwSTEP 2.0',
    'SolidWorks 2014',
    '' );
FILE_SCHEMA (( 'AUTOMOTIVE_DESIGN' ));
ENDSEC;

DATA;
#1 = PRODUCT_CONTEXT ( 'NONE', #28, 'mechanical' ) ;
#2 = PRODUCT_DEFINITION_FORMATION_WITH_SPECIFIED_SOURCE ( 'ANY', '', #132, .NOT_KNOWN. ) ;
#3 = ADVANCED_FACE ( 'NONE', ( #199 ), #279, .T. ) ;
#4 = ADVANCED_FACE ( 'NONE', ( #320 ), #357, .F. ) ;
#5 = DIRECTION ( 'NONE',  ( 1.000000000000000000, 0.0000000000000000000, 0.0000000000000000000 ) ) ;
#6 = ADVANCED_FACE ( 'NONE', ( #188 ), #238, .T. ) ;
#7 = VECTOR ( 'NONE', #149, 1000.000000000000000 ) ;
#8 = PRODUCT_DEFINITION ( 'UNKNOWN', '', #2, #109 ) ;
#9 = AXIS2_PLACEMENT_3D ( 'NONE', #14, #13, #5 ) ;
#10 = ORIENTED_EDGE ( 'NONE', *, *, #46, .F. ) ;
#11 = ORIENTED_EDGE ( 'NONE', *, *, #117, .T. ) ;
#12 = ADVANCED_FACE ( 'NONE', ( #198 ), #202, .T. ) ;
#13 = DIRECTION ( 'NONE',  ( 0.0000000000000000000, 0.0000000000000000000, 1.000000000000000000 ) ) ;
#14 = CARTESIAN_POINT ( 'NONE',  ( 0.0000000000000000000, 0.0000000000000000000, 0.0000000000000000000 ) ) ;
#15 = PRODUCT_DEFINITION_SHAPE ( 'NONE', 'NONE',  #8 ) ;
#16 = EDGE_CURVE ( 'NONE', #355, #305, #185, .T. ) ;
#17 = PRESENTATION_STYLE_ASSIGNMENT (( #24 ) ) ;
#18 =( NAMED_UNIT ( * ) SI_UNIT ( $, .STERADIAN. ) SOLID_ANGLE_UNIT ( ) );
#19 =( NAMED_UNIT ( * ) PLANE_ANGLE_UNIT ( ) SI_UNIT ( $, .RADIAN. ) );
#20 = SURFACE_STYLE_FILL_AREA ( #27 ) ;
#21 = COLOUR_RGB ( '',0.7529411764705882200, 0.7529411764705882200, 0.7529411764705882200 ) ;
#22 = ORIENTED_EDGE ( 'NONE', *, *, #392, .T. ) ;
#23 =( LENGTH_UNIT ( ) NAMED_UNIT ( * ) SI_UNIT ( .MILLI., .METRE. ) );
#24 = SURFACE_STYLE_USAGE ( .BOTH. , #25 ) ;
#25 = SURFACE_SIDE_STYLE ('',( #20 ) ) ;
#26 = EDGE_CURVE ( 'NONE', #255, #306, #186, .T. ) ;
#27 = FILL_AREA_STYLE ('',( #76 ) ) ;
#28 = APPLICATION_CONTEXT ( 'automotive_design' ) ;
#29 =( GEOMETRIC_REPRESENTATION_CONTEXT ( 3 ) GLOBAL_UNCERTAINTY_ASSIGNED_CONTEXT ( ( #68 ) ) GLOBAL_UNIT_ASSIGNED_CONTEXT ( ( #23, #19, #18 ) ) REPRESENTATION_CONTEXT ( 'NONE', 'WORKASPACE' ) );
#30 = APPLICATION_PROTOCOL_DEFINITION ( 'draft international standard', 'automotive_design', 1998, #28 ) ;
#31 = MECHANICAL_DESIGN_GEOMETRIC_PRESENTATION_REPRESENTATION (  '', ( #35 ), #29 ) ;
#32 =( NAMED_UNIT ( * ) SI_UNIT ( $, .STERADIAN. ) SOLID_ANGLE_UNIT ( ) );
#33 =( NAMED_UNIT ( * ) PLANE_ANGLE_UNIT ( ) SI_UNIT ( $, .RADIAN. ) );
#34 = PRESENTATION_LAYER_ASSIGNMENT (  '', '', ( #35 ) ) ;
#35 = STYLED_ITEM ( 'NONE', ( #17 ), #105 ) ;
#36 = APPLICATION_PROTOCOL_DEFINITION ( 'draft international standard', 'automotive_design', 1998, #65 ) ;
#37 = PRESENTATION_STYLE_ASSIGNMENT (( #50 ) ) ;
#38 = COLOUR_RGB ( '',0.7529411764705882200, 0.7529411764705882200, 0.7529411764705882200 ) ;
#39 = PRODUCT_RELATED_PRODUCT_CATEGORY ( 'part', '', ( #132 ) ) ;
#40 = FILL_AREA_STYLE ('',( #71 ) ) ;
#41 = ADVANCED_FACE ( 'NONE', ( #183 ), #148, .F. ) ;
#42 = VECTOR ( 'NONE', #67, 1000.000000000000000 ) ;
#43 =( NAMED_UNIT ( * ) SI_UNIT ( $, .STERADIAN. ) SOLID_ANGLE_UNIT ( ) );
#44 =( NAMED_UNIT ( * ) PLANE_ANGLE_UNIT ( ) SI_UNIT ( $, .RADIAN. ) );
#45 =( GEOMETRIC_REPRESENTATION_CONTEXT ( 3 ) GLOBAL_UNCERTAINTY_ASSIGNED_CONTEXT ( ( #179 ) ) GLOBAL_UNIT_ASSIGNED_CONTEXT ( ( #64, #33, #32 ) ) REPRESENTATION_CONTEXT ( 'NONE', 'WORKASPACE' ) );
#46 = EDGE_CURVE ( 'NONE', #305, #326, #169, .T. ) ;
#47 =( GEOMETRIC_REPRESENTATION_CONTEXT ( 3 ) GLOBAL_UNCERTAINTY_ASSIGNED_CONTEXT ( ( #190 ) ) GLOBAL_UNIT_ASSIGNED_CONTEXT ( ( #49, #44, #43 ) ) REPRESENTATION_CONTEXT ( 'NONE', 'WORKASPACE' ) );
#48 = LINE ( 'NONE', #69, #42 ) ;
#49 =( LENGTH_UNIT ( ) NAMED_UNIT ( * ) SI_UNIT ( .MILLI., .METRE. ) );
#50 = SURFACE_STYLE_USAGE ( .BOTH. , #58 ) ;
#51 = VECTOR ( 'NONE', #113, 1000.000000000000000 ) ;
#52 = VECTOR ( 'NONE', #103, 1000.000000000000000 ) ;
#53 = VECTOR ( 'NONE', #127, 1000.000000000000000 ) ;
#54 = DIRECTION ( 'NONE',  ( 1.000000000000000000, -0.0000000000000000000, -0.0000000000000000000 ) ) ;
#55 = ORIENTED_EDGE ( 'NONE', *, *, #385, .F. ) ;
#56 = VECTOR ( 'NONE', #77, 1000.000000000000000 ) ;
#57 = LINE ( 'NONE', #152, #53 ) ;
#58 = SURFACE_SIDE_STYLE ('',( #334 ) ) ;
#59 = MECHANICAL_DESIGN_GEOMETRIC_PRESENTATION_REPRESENTATION (  '', ( #74 ), #47 ) ;
#60 = PLANE ( 'NONE',  #192 ) ;
#61 = LINE ( 'NONE', #89, #175 ) ;
#62 = DIRECTION ( 'NONE',  ( 0.0000000000000000000, -1.000000000000000000, 0.0000000000000000000 ) ) ;
#63 = PRESENTATION_LAYER_ASSIGNMENT (  '', '', ( #74 ) ) ;
#64 =( LENGTH_UNIT ( ) NAMED_UNIT ( * ) SI_UNIT ( .MILLI., .METRE. ) );
#65 = APPLICATION_CONTEXT ( 'automotive_design' ) ;
#66 = LINE ( 'NONE', #106, #242 ) ;
#67 = DIRECTION ( 'NONE',  ( -1.000000000000000000, -0.0000000000000000000, -0.0000000000000000000 ) ) ;
#68 = UNCERTAINTY_MEASURE_WITH_UNIT (LENGTH_MEASURE( 1.000000000000000100E-005 ), #23, 'distance_accuracy_value', 'NONE');
#69 = CARTESIAN_POINT ( 'NONE',  ( 61.00000000000000000, 101.0000000000000000, -150.0000000000000000 ) ) ;
#70 = AXIS2_PLACEMENT_3D ( 'NONE', #210, #163, #162 ) ;
#71 = FILL_AREA_STYLE_COLOUR ( '', #38 ) ;
#72 = FACE_OUTER_BOUND ( 'NONE', #243, .T. ) ;
#73 = LINE ( 'NONE', #157, #325 ) ;
#74 = STYLED_ITEM ( 'NONE', ( #37 ), #400 ) ;
#75 = VECTOR ( 'NONE', #189, 1000.000000000000000 ) ;
#76 = FILL_AREA_STYLE_COLOUR ( '', #21 ) ;
#77 = DIRECTION ( 'NONE',  ( -0.0000000000000000000, 1.000000000000000000, -0.0000000000000000000 ) ) ;
#78 = CARTESIAN_POINT ( 'NONE',  ( -61.00000000000000000, 101.0000000000000000, -150.0000000000000000 ) ) ;
#79 = LINE ( 'NONE', #128, #51 ) ;
#80 = LINE ( 'NONE', #142, #7 ) ;
#81 = CARTESIAN_POINT ( 'NONE',  ( 64.79999999999999700, -7.806255641895631900E-015, -148.0000000000000000 ) ) ;
#82 = VECTOR ( 'NONE', #177, 1000.000000000000000 ) ;
#83 = DIRECTION ( 'NONE',  ( 0.0000000000000000000, -1.000000000000000000, 0.0000000000000000000 ) ) ;
#84 = ORIENTED_EDGE ( 'NONE', *, *, #347, .F. ) ;
#85 = CARTESIAN_POINT ( 'NONE',  ( -61.00000000000000000, 101.0000000000000000, -148.0999999999999900 ) ) ;
#86 = AXIS2_PLACEMENT_3D ( 'NONE', #212, #209, #208 ) ;
#87 = DIRECTION ( 'NONE',  ( -1.000000000000000000, -0.0000000000000000000, -0.0000000000000000000 ) ) ;
#88 = LINE ( 'NONE', #195, #75 ) ;
#89 = CARTESIAN_POINT ( 'NONE',  ( -61.00000000000000000, -3.148819142921778400E-016, -148.0000000000000000 ) ) ;
#90 = FACE_OUTER_BOUND ( 'NONE', #207, .T. ) ;
#91 = LINE ( 'NONE', #193, #82 ) ;
#92 = VECTOR ( 'NONE', #214, 1000.000000000000000 ) ;
#93 = CARTESIAN_POINT ( 'NONE',  ( -63.00000000000000000, 1.799999999999996000, 0.0000000000000000000 ) ) ;
#94 = EDGE_CURVE ( 'NONE', #369, #379, #180, .T. ) ;
#95 = VECTOR ( 'NONE', #191, 1000.000000000000000 ) ;
#96 = VECTOR ( 'NONE', #224, 1000.000000000000000 ) ;
#97 = LINE ( 'NONE', #220, #92 ) ;
#98 = LINE ( 'NONE', #246, #96 ) ;
#99 = CARTESIAN_POINT ( 'NONE',  ( 61.00000000000000000, 101.0000000000000000, -148.0999999999999900 ) ) ;
#100 = AXIS2_PLACEMENT_3D ( 'NONE', #333, #258, #252 ) ;
#101 = DIRECTION ( 'NONE',  ( -0.0000000000000000000, -1.000000000000000000, -0.0000000000000000000 ) ) ;
#102 = VECTOR ( 'NONE', #230, 1000.000000000000000 ) ;
#103 = DIRECTION ( 'NONE',  ( -1.000000000000000000, -0.0000000000000000000, -0.0000000000000000000 ) ) ;
#104 = FACE_OUTER_BOUND ( 'NONE', #233, .T. ) ;
#105 = ADVANCED_BREP_SHAPE_REPRESENTATION ( '6183956', ( #400, #9 ), #45 ) ;
#106 = CARTESIAN_POINT ( 'NONE',  ( -61.00000000000000000, 1.799999999999999800, -148.0000000000000000 ) ) ;
#107 = LINE ( 'NONE', #234, #102 ) ;
#108 = FACE_OUTER_BOUND ( 'NONE', #213, .T. ) ;
#109 = PRODUCT_DEFINITION_CONTEXT ( 'detailed design', #65, 'design' ) ;
#110 = CARTESIAN_POINT ( 'NONE',  ( 61.00000000000000000, 101.0000000000000000, -150.0000000000000000 ) ) ;
#111 = VECTOR ( 'NONE', #308, 1000.000000000000000 ) ;
#112 = LINE ( 'NONE', #93, #143 ) ;
#113 = DIRECTION ( 'NONE',  ( -0.0000000000000000000, 1.574409571460887700E-016, -1.000000000000000000 ) ) ;
#114 = FACE_OUTER_BOUND ( 'NONE', #226, .T. ) ;
#115 = LINE ( 'NONE', #316, #120 ) ;
#116 = ORIENTED_EDGE ( 'NONE', *, *, #16, .F. ) ;
#117 = EDGE_CURVE ( 'NONE', #317, #283, #167, .T. ) ;
#118 = ADVANCED_FACE ( 'NONE', ( #178 ), #60, .F. ) ;
#119 = DIRECTION ( 'NONE',  ( -0.0000000000000000000, -0.0000000000000000000, 1.000000000000000000 ) ) ;
#120 = VECTOR ( 'NONE', #310, 1000.000000000000000 ) ;
#121 = LINE ( 'NONE', #311, #111 ) ;
#122 = CARTESIAN_POINT ( 'NONE',  ( 61.00000000000000000, 1.799999999999999800, -148.0999999999999900 ) ) ;
#123 = EDGE_CURVE ( 'NONE', #306, #369, #155, .T. ) ;
#124 = VECTOR ( 'NONE', #335, 1000.000000000000000 ) ;
#125 = EDGE_CURVE ( 'NONE', #241, #236, #156, .T. ) ;
#126 = DIRECTION ( 'NONE',  ( 0.0000000000000000000, 0.0000000000000000000, 1.000000000000000000 ) ) ;
#127 = DIRECTION ( 'NONE',  ( -0.0000000000000000000, -0.0000000000000000000, 1.000000000000000000 ) ) ;
#128 = CARTESIAN_POINT ( 'NONE',  ( 61.00000000000000000, 0.0000000000000000000, -150.0000000000000000 ) ) ;
#129 = AXIS2_PLACEMENT_3D ( 'NONE', #278, #276, #274 ) ;
#130 = LINE ( 'NONE', #201, #95 ) ;
#131 = VECTOR ( 'NONE', #348, 1000.000000000000000 ) ;
#132 = PRODUCT ( '6183956', '6183956', '', ( #1 ) ) ;
#133 = CARTESIAN_POINT ( 'NONE',  ( 61.00000000000000000, 101.0000000000000000, -148.0999999999999900 ) ) ;
#134 = EDGE_CURVE ( 'NONE', #251, #241, #159, .T. ) ;
#135 = LINE ( 'NONE', #339, #124 ) ;
#136 = VECTOR ( 'NONE', #349, 1000.000000000000000 ) ;
#137 = CARTESIAN_POINT ( 'NONE',  ( -61.00000000000000000, 101.0000000000000000, -150.0000000000000000 ) ) ;
#138 = FACE_OUTER_BOUND ( 'NONE', #200, .T. ) ;
#139 = VECTOR ( 'NONE', #359, 1000.000000000000000 ) ;
#140 = DIRECTION ( 'NONE',  ( -0.0000000000000000000, -1.000000000000000000, -0.0000000000000000000 ) ) ;
#141 = EDGE_CURVE ( 'NONE', #216, #251, #154, .T. ) ;
#142 = CARTESIAN_POINT ( 'NONE',  ( 61.00000000000000000, 0.0000000000000000000, -150.0000000000000000 ) ) ;
#143 = VECTOR ( 'NONE', #87, 1000.000000000000000 ) ;
#144 = LINE ( 'NONE', #354, #136 ) ;
#145 = DIRECTION ( 'NONE',  ( 1.000000000000000000, 0.0000000000000000000, 0.0000000000000000000 ) ) ;
#146 = VECTOR ( 'NONE', #366, 1000.000000000000000 ) ;
#147 = DIRECTION ( 'NONE',  ( -0.0000000000000000000, 0.0000000000000000000, 1.000000000000000000 ) ) ;
#148 = PLANE ( 'NONE',  #196 ) ;
#149 = DIRECTION ( 'NONE',  ( -1.000000000000000000, -0.0000000000000000000, -0.0000000000000000000 ) ) ;
#150 = CARTESIAN_POINT ( 'NONE',  ( 61.00000000000000000, 101.0000000000000000, -148.0999999999999900 ) ) ;
#151 = LINE ( 'NONE', #371, #131 ) ;
#152 = CARTESIAN_POINT ( 'NONE',  ( 61.00000000000000000, 1.799999999999999800, -148.0000000000000000 ) ) ;
#153 = VECTOR ( 'NONE', #370, 1000.000000000000000 ) ;
#154 = LINE ( 'NONE', #389, #139 ) ;
#155 = LINE ( 'NONE', #374, #161 ) ;
#156 = LINE ( 'NONE', #399, #153 ) ;
#157 = CARTESIAN_POINT ( 'NONE',  ( -64.79999999999999700, -7.806255641895631900E-015, 0.0000000000000000000 ) ) ;
#158 = CARTESIAN_POINT ( 'NONE',  ( 61.00000000000000000, 101.0000000000000000, -150.0000000000000000 ) ) ;
#159 = LINE ( 'NONE', #390, #146 ) ;
#160 = VECTOR ( 'NONE', #54, 1000.000000000000000 ) ;
#161 = VECTOR ( 'NONE', #373, 1000.000000000000000 ) ;
#162 = DIRECTION ( 'NONE',  ( 0.0000000000000000000, -0.0000000000000000000, -1.000000000000000000 ) ) ;
#163 = DIRECTION ( 'NONE',  ( 0.0000000000000000000, -1.000000000000000000, 0.0000000000000000000 ) ) ;
#164 = PLANE ( 'NONE',  #70 ) ;
#165 = EDGE_CURVE ( 'NONE', #204, #256, #144, .T. ) ;
#166 = VECTOR ( 'NONE', #62, 1000.000000000000000 ) ;
#167 = LINE ( 'NONE', #81, #160 ) ;
#168 = EDGE_CURVE ( 'NONE', #342, #204, #151, .T. ) ;
#169 = LINE ( 'NONE', #85, #187 ) ;
#170 = DIRECTION ( 'NONE',  ( -0.0000000000000000000, 1.000000000000000000, -0.0000000000000000000 ) ) ;
#171 = CARTESIAN_POINT ( 'NONE',  ( -61.00000000000000000, 0.0000000000000000000, 0.0000000000000000000 ) ) ;
#172 = CARTESIAN_POINT ( 'NONE',  ( 61.00000000000000000, 1.799999999999999800, -148.0999999999999900 ) ) ;
#173 = AXIS2_PLACEMENT_3D ( 'NONE', #294, #293, #292 ) ;
#174 = CARTESIAN_POINT ( 'NONE',  ( -61.00000000000000000, 101.0000000000000000, -150.0000000000000000 ) ) ;
#175 = VECTOR ( 'NONE', #101, 1000.000000000000000 ) ;
#176 = DIRECTION ( 'NONE',  ( 0.0000000000000000000, 0.0000000000000000000, 1.000000000000000000 ) ) ;
#177 = DIRECTION ( 'NONE',  ( 0.0000000000000000000, 0.0000000000000000000, 1.000000000000000000 ) ) ;
#178 = FACE_OUTER_BOUND ( 'NONE', #253, .T. ) ;
#179 = UNCERTAINTY_MEASURE_WITH_UNIT (LENGTH_MEASURE( 1.000000000000000100E-005 ), #64, 'distance_accuracy_value', 'NONE');
#180 = LINE ( 'NONE', #99, #166 ) ;
#181 = VECTOR ( 'NONE', #170, 1000.000000000000000 ) ;
#182 = AXIS2_PLACEMENT_3D ( 'NONE', #360, #324, #322 ) ;
#183 = FACE_OUTER_BOUND ( 'NONE', #231, .T. ) ;
#184 = EDGE_CURVE ( 'NONE', #236, #298, #135, .T. ) ;
#185 = LINE ( 'NONE', #137, #197 ) ;
#186 = LINE ( 'NONE', #110, #181 ) ;
#187 = VECTOR ( 'NONE', #83, 1000.000000000000000 ) ;
#188 = FACE_OUTER_BOUND ( 'NONE', #232, .T. ) ;
#189 = DIRECTION ( 'NONE',  ( -0.0000000000000000000, 1.574409571460887700E-016, -1.000000000000000000 ) ) ;
#190 = UNCERTAINTY_MEASURE_WITH_UNIT (LENGTH_MEASURE( 1.000000000000000100E-005 ), #49, 'distance_accuracy_value', 'NONE');
#191 = DIRECTION ( 'NONE',  ( 1.000000000000000000, -0.0000000000000000000, -0.0000000000000000000 ) ) ;
#192 = AXIS2_PLACEMENT_3D ( 'NONE', #150, #396, #394 ) ;
#193 = CARTESIAN_POINT ( 'NONE',  ( -64.79999999999999700, 1.799999999999996000, -148.0000000000000000 ) ) ;
#194 = ORIENTED_EDGE ( 'NONE', *, *, #338, .F. ) ;
#195 = CARTESIAN_POINT ( 'NONE',  ( -61.00000000000000000, 0.0000000000000000000, -150.0000000000000000 ) ) ;
#196 = AXIS2_PLACEMENT_3D ( 'NONE', #158, #147, #145 ) ;
#197 = VECTOR ( 'NONE', #126, 1000.000000000000000 ) ;
#198 = FACE_OUTER_BOUND ( 'NONE', #250, .T. ) ;
#199 = FACE_OUTER_BOUND ( 'NONE', #275, .T. ) ;
#200 = EDGE_LOOP ( 'NONE', ( #318, #315, #336, #350 ) ) ;
#201 = CARTESIAN_POINT ( 'NONE',  ( 64.79999999999999700, -7.806255641895631900E-015, -148.0000000000000000 ) ) ;
#202 = PLANE ( 'NONE',  #211 ) ;
#203 = ADVANCED_FACE ( 'NONE', ( #138 ), #328, .F. ) ;
#204 = VERTEX_POINT ( 'NONE', #353 ) ;
#205 = ORIENTED_EDGE ( 'NONE', *, *, #347, .T. ) ;
#206 = DIRECTION ( 'NONE',  ( 0.0000000000000000000, 0.0000000000000000000, -1.000000000000000000 ) ) ;
#207 = EDGE_LOOP ( 'NONE', ( #247, #248, #254, #260 ) ) ;
#208 = DIRECTION ( 'NONE',  ( 0.0000000000000000000, 0.0000000000000000000, 1.000000000000000000 ) ) ;
#209 = DIRECTION ( 'NONE',  ( -1.000000000000000000, 0.0000000000000000000, 0.0000000000000000000 ) ) ;
#210 = CARTESIAN_POINT ( 'NONE',  ( 61.00000000000000000, 101.0000000000000000, -150.0000000000000000 ) ) ;
#211 = AXIS2_PLACEMENT_3D ( 'NONE', #171, #225, #176 ) ;
#212 = CARTESIAN_POINT ( 'NONE',  ( -64.79999999999999700, -7.806255641895631900E-015, -148.0000000000000000 ) ) ;
#213 = EDGE_LOOP ( 'NONE', ( #289, #218, #291, #205, #217, #222, #11, #227 ) ) ;
#214 = DIRECTION ( 'NONE',  ( 0.0000000000000000000, 0.0000000000000000000, 1.000000000000000000 ) ) ;
#215 = PLANE ( 'NONE',  #86 ) ;
#216 = VERTEX_POINT ( 'NONE', #319 ) ;
#217 = ORIENTED_EDGE ( 'NONE', *, *, #365, .F. ) ;
#218 = ORIENTED_EDGE ( 'NONE', *, *, #340, .F. ) ;
#219 = EDGE_CURVE ( 'NONE', #369, #305, #115, .T. ) ;
#220 = CARTESIAN_POINT ( 'NONE',  ( -64.79999999999999700, -7.806255641895631900E-015, -148.0000000000000000 ) ) ;
#221 = LINE ( 'NONE', #122, #52 ) ;
#222 = ORIENTED_EDGE ( 'NONE', *, *, #380, .F. ) ;
#223 = EDGE_CURVE ( 'NONE', #298, #317, #121, .T. ) ;
#224 = DIRECTION ( 'NONE',  ( 0.0000000000000000000, 0.0000000000000000000, 1.000000000000000000 ) ) ;
#225 = DIRECTION ( 'NONE',  ( -1.000000000000000000, 0.0000000000000000000, 0.0000000000000000000 ) ) ;
#226 = EDGE_LOOP ( 'NONE', ( #377, #378, #383, #384, #387, #391 ) ) ;
#227 = ORIENTED_EDGE ( 'NONE', *, *, #338, .T. ) ;
#228 = AXIS2_PLACEMENT_3D ( 'NONE', #296, #237, #206 ) ;
#229 = DIRECTION ( 'NONE',  ( 0.0000000000000000000, 0.0000000000000000000, 1.000000000000000000 ) ) ;
#230 = DIRECTION ( 'NONE',  ( 0.0000000000000000000, 1.000000000000000000, 0.0000000000000000000 ) ) ;
#231 = EDGE_LOOP ( 'NONE', ( #330, #332, #343, #344 ) ) ;
#232 = EDGE_LOOP ( 'NONE', ( #363, #382, #194, #393 ) ) ;
#233 = EDGE_LOOP ( 'NONE', ( #261, #266, #268, #282, #286, #290, #297, #303 ) ) ;
#234 = CARTESIAN_POINT ( 'NONE',  ( 64.79999999999999700, -7.806255641895631900E-015, -148.0000000000000000 ) ) ;
#235 = EDGE_LOOP ( 'NONE', ( #304, #307, #22, #312 ) ) ;
#236 = VERTEX_POINT ( 'NONE', #302 ) ;
#237 = DIRECTION ( 'NONE',  ( 1.000000000000000000, 0.0000000000000000000, 0.0000000000000000000 ) ) ;
#238 = PLANE ( 'NONE',  #228 ) ;
#239 = CARTESIAN_POINT ( 'NONE',  ( 61.00000000000000000, -3.148819142921778400E-016, -148.0000000000000000 ) ) ;
#240 = CARTESIAN_POINT ( 'NONE',  ( -61.00000000000000000, 1.799999999999999800, -148.0999999999999900 ) ) ;
#241 = VERTEX_POINT ( 'NONE', #299 ) ;
#242 = VECTOR ( 'NONE', #119, 1000.000000000000000 ) ;
#243 = EDGE_LOOP ( 'NONE', ( #346, #352, #358, #361 ) ) ;
#244 = CARTESIAN_POINT ( 'NONE',  ( -61.00000000000000000, 1.799999999999996000, -148.0000000000000000 ) ) ;
#245 = ADVANCED_FACE ( 'NONE', ( #114 ), #301, .F. ) ;
#246 = CARTESIAN_POINT ( 'NONE',  ( 64.79999999999999700, -7.806255641895631900E-015, -148.0000000000000000 ) ) ;
#247 = ORIENTED_EDGE ( 'NONE', *, *, #351, .F. ) ;
#248 = ORIENTED_EDGE ( 'NONE', *, *, #165, .T. ) ;
#249 = CARTESIAN_POINT ( 'NONE',  ( -61.00000000000000000, 101.0000000000000000, -148.0999999999999900 ) ) ;
#250 = EDGE_LOOP ( 'NONE', ( #388, #84, #329, #55, #10, #116 ) ) ;
#251 = VERTEX_POINT ( 'NONE', #285 ) ;
#252 = DIRECTION ( 'NONE',  ( 0.0000000000000000000, -0.0000000000000000000, 1.000000000000000000 ) ) ;
#253 = EDGE_LOOP ( 'NONE', ( #362, #364, #368, #375 ) ) ;
#254 = ORIENTED_EDGE ( 'NONE', *, *, #340, .T. ) ;
#255 = VERTEX_POINT ( 'NONE', #288 ) ;
#256 = VERTEX_POINT ( 'NONE', #321 ) ;
#257 = AXIS2_PLACEMENT_3D ( 'NONE', #309, #229, #263 ) ;
#258 = DIRECTION ( 'NONE',  ( 0.0000000000000000000, 1.000000000000000000, 0.0000000000000000000 ) ) ;
#259 = ADVANCED_FACE ( 'NONE', ( #108 ), #287, .T. ) ;
#260 = ORIENTED_EDGE ( 'NONE', *, *, #367, .F. ) ;
#261 = ORIENTED_EDGE ( 'NONE', *, *, #184, .T. ) ;
#262 = VERTEX_POINT ( 'NONE', #270 ) ;
#263 = DIRECTION ( 'NONE',  ( 1.000000000000000000, 0.0000000000000000000, -0.0000000000000000000 ) ) ;
#264 = CARTESIAN_POINT ( 'NONE',  ( 61.00000000000000000, 1.799999999999996000, -148.0000000000000000 ) ) ;
#265 = PLANE ( 'NONE',  #100 ) ;
#266 = ORIENTED_EDGE ( 'NONE', *, *, #372, .F. ) ;
#267 = CARTESIAN_POINT ( 'NONE',  ( 64.14000000000000100, 13.63999999999999900, 0.0000000000000000000 ) ) ;
#268 = ORIENTED_EDGE ( 'NONE', *, *, #381, .T. ) ;
#269 = CARTESIAN_POINT ( 'NONE',  ( 61.00000000000000000, 101.0000000000000000, -150.0000000000000000 ) ) ;
#270 = CARTESIAN_POINT ( 'NONE',  ( -64.79999999999999700, 1.799999999999996000, 0.0000000000000000000 ) ) ;
#271 = CARTESIAN_POINT ( 'NONE',  ( -61.00000000000000000, -7.806255641895631900E-015, -148.0000000000000000 ) ) ;
#272 = CARTESIAN_POINT ( 'NONE',  ( -61.00000000000000000, 0.0000000000000000000, -150.0000000000000000 ) ) ;
#273 = VERTEX_POINT ( 'NONE', #271 ) ;
#274 = DIRECTION ( 'NONE',  ( 0.0000000000000000000, -0.0000000000000000000, -1.000000000000000000 ) ) ;
#275 = EDGE_LOOP ( 'NONE', ( #313, #314, #323, #327 ) ) ;
#276 = DIRECTION ( 'NONE',  ( 0.0000000000000000000, -1.000000000000000000, 0.0000000000000000000 ) ) ;
#277 = AXIS2_PLACEMENT_3D ( 'NONE', #267, #280, #300 ) ;
#278 = CARTESIAN_POINT ( 'NONE',  ( 64.79999999999999700, -7.806255641895631900E-015, -148.0000000000000000 ) ) ;
#279 = PLANE ( 'NONE',  #277 ) ;
#280 = DIRECTION ( 'NONE',  ( 0.0000000000000000000, 0.0000000000000000000, 1.000000000000000000 ) ) ;
#281 = VERTEX_POINT ( 'NONE', #272 ) ;
#282 = ORIENTED_EDGE ( 'NONE', *, *, #385, .T. ) ;
#283 = VERTEX_POINT ( 'NONE', #284 ) ;
#284 = CARTESIAN_POINT ( 'NONE',  ( 64.79999999999999700, -7.806255641895631900E-015, -148.0000000000000000 ) ) ;
#285 = CARTESIAN_POINT ( 'NONE',  ( 64.79999999999999700, -7.806255641895631900E-015, 0.0000000000000000000 ) ) ;
#286 = ORIENTED_EDGE ( 'NONE', *, *, #168, .T. ) ;
#287 = PLANE ( 'NONE',  #129 ) ;
#288 = CARTESIAN_POINT ( 'NONE',  ( 61.00000000000000000, 0.0000000000000000000, -150.0000000000000000 ) ) ;
#289 = ORIENTED_EDGE ( 'NONE', *, *, #141, .F. ) ;
#290 = ORIENTED_EDGE ( 'NONE', *, *, #351, .T. ) ;
#291 = ORIENTED_EDGE ( 'NONE', *, *, #345, .T. ) ;
#292 = DIRECTION ( 'NONE',  ( 0.0000000000000000000, 0.0000000000000000000, 1.000000000000000000 ) ) ;
#293 = DIRECTION ( 'NONE',  ( -1.000000000000000000, 0.0000000000000000000, 0.0000000000000000000 ) ) ;
#294 = CARTESIAN_POINT ( 'NONE',  ( 61.00000000000000000, 0.0000000000000000000, 0.0000000000000000000 ) ) ;
#295 = ADVANCED_FACE ( 'NONE', ( #104 ), #265, .T. ) ;
#296 = CARTESIAN_POINT ( 'NONE',  ( 64.79999999999999700, -7.806255641895631900E-015, -148.0000000000000000 ) ) ;
#297 = ORIENTED_EDGE ( 'NONE', *, *, #386, .F. ) ;
#298 = VERTEX_POINT ( 'NONE', #264 ) ;
#299 = CARTESIAN_POINT ( 'NONE',  ( 64.79999999999999700, 1.799999999999996000, 0.0000000000000000000 ) ) ;
#300 = DIRECTION ( 'NONE',  ( 1.000000000000000000, 0.0000000000000000000, -0.0000000000000000000 ) ) ;
#301 = PLANE ( 'NONE',  #173 ) ;
#302 = CARTESIAN_POINT ( 'NONE',  ( 64.79999999999999700, 1.799999999999996000, -148.0000000000000000 ) ) ;
#303 = ORIENTED_EDGE ( 'NONE', *, *, #125, .T. ) ;
#304 = ORIENTED_EDGE ( 'NONE', *, *, #165, .F. ) ;
#305 = VERTEX_POINT ( 'NONE', #249 ) ;
#306 = VERTEX_POINT ( 'NONE', #269 ) ;
#307 = ORIENTED_EDGE ( 'NONE', *, *, #168, .F. ) ;
#308 = DIRECTION ( 'NONE',  ( -0.0000000000000000000, -1.000000000000000000, -0.0000000000000000000 ) ) ;
#309 = CARTESIAN_POINT ( 'NONE',  ( 64.14000000000000100, 13.63999999999999900, -148.0000000000000000 ) ) ;
#310 = DIRECTION ( 'NONE',  ( -1.000000000000000000, -0.0000000000000000000, -0.0000000000000000000 ) ) ;
#311 = CARTESIAN_POINT ( 'NONE',  ( 61.00000000000000000, -3.148819142921778400E-016, -148.0000000000000000 ) ) ;
#312 = ORIENTED_EDGE ( 'NONE', *, *, #345, .F. ) ;
#313 = ORIENTED_EDGE ( 'NONE', *, *, #386, .T. ) ;
#314 = ORIENTED_EDGE ( 'NONE', *, *, #367, .T. ) ;
#315 = ORIENTED_EDGE ( 'NONE', *, *, #337, .F. ) ;
#316 = CARTESIAN_POINT ( 'NONE',  ( 61.00000000000000000, 101.0000000000000000, -148.0999999999999900 ) ) ;
#317 = VERTEX_POINT ( 'NONE', #239 ) ;
#318 = ORIENTED_EDGE ( 'NONE', *, *, #184, .F. ) ;
#319 = CARTESIAN_POINT ( 'NONE',  ( -64.79999999999999700, -7.806255641895631900E-015, 0.0000000000000000000 ) ) ;
#320 = FACE_OUTER_BOUND ( 'NONE', #235, .T. ) ;
#321 = CARTESIAN_POINT ( 'NONE',  ( -64.79999999999999700, -7.806255641895631900E-015, -148.0000000000000000 ) ) ;
#322 = DIRECTION ( 'NONE',  ( 1.000000000000000000, 0.0000000000000000000, -0.0000000000000000000 ) ) ;
#323 = ORIENTED_EDGE ( 'NONE', *, *, #141, .T. ) ;
#324 = DIRECTION ( 'NONE',  ( 0.0000000000000000000, 0.0000000000000000000, 1.000000000000000000 ) ) ;
#325 = VECTOR ( 'NONE', #140, 1000.000000000000000 ) ;
#326 = VERTEX_POINT ( 'NONE', #240 ) ;
#327 = ORIENTED_EDGE ( 'NONE', *, *, #134, .T. ) ;
#328 = PLANE ( 'NONE',  #182 ) ;
#329 = ORIENTED_EDGE ( 'NONE', *, *, #392, .F. ) ;
#330 = ORIENTED_EDGE ( 'NONE', *, *, #395, .T. ) ;
#331 = LINE ( 'NONE', #78, #56 ) ;
#332 = ORIENTED_EDGE ( 'NONE', *, *, #398, .F. ) ;
#333 = CARTESIAN_POINT ( 'NONE',  ( -63.00000000000000000, 1.799999999999996000, -148.0000000000000000 ) ) ;
#334 = SURFACE_STYLE_FILL_AREA ( #40 ) ;
#335 = DIRECTION ( 'NONE',  ( -1.000000000000000000, -0.0000000000000000000, -0.0000000000000000000 ) ) ;
#336 = ORIENTED_EDGE ( 'NONE', *, *, #117, .F. ) ;
#337 = EDGE_CURVE ( 'NONE', #283, #236, #107, .T. ) ;
#338 = EDGE_CURVE ( 'NONE', #283, #251, #98, .T. ) ;
#339 = CARTESIAN_POINT ( 'NONE',  ( -63.00000000000000000, 1.799999999999996000, -148.0000000000000000 ) ) ;
#340 = EDGE_CURVE ( 'NONE', #256, #216, #97, .T. ) ;
#341 = ADVANCED_FACE ( 'NONE', ( #90 ), #215, .T. ) ;
#342 = VERTEX_POINT ( 'NONE', #244 ) ;
#343 = ORIENTED_EDGE ( 'NONE', *, *, #26, .F. ) ;
#344 = ORIENTED_EDGE ( 'NONE', *, *, #365, .T. ) ;
#345 = EDGE_CURVE ( 'NONE', #256, #273, #130, .T. ) ;
#346 = ORIENTED_EDGE ( 'NONE', *, *, #16, .T. ) ;
#347 = EDGE_CURVE ( 'NONE', #273, #281, #88, .T. ) ;
#348 = DIRECTION ( 'NONE',  ( -1.000000000000000000, -0.0000000000000000000, -0.0000000000000000000 ) ) ;
#349 = DIRECTION ( 'NONE',  ( -0.0000000000000000000, -1.000000000000000000, -0.0000000000000000000 ) ) ;
#350 = ORIENTED_EDGE ( 'NONE', *, *, #223, .F. ) ;
#351 = EDGE_CURVE ( 'NONE', #204, #262, #91, .T. ) ;
#352 = ORIENTED_EDGE ( 'NONE', *, *, #219, .F. ) ;
#353 = CARTESIAN_POINT ( 'NONE',  ( -64.79999999999999700, 1.799999999999996000, -148.0000000000000000 ) ) ;
#354 = CARTESIAN_POINT ( 'NONE',  ( -64.79999999999999700, -7.806255641895631900E-015, -148.0000000000000000 ) ) ;
#355 = VERTEX_POINT ( 'NONE', #174 ) ;
#356 = ADVANCED_FACE ( 'NONE', ( #72 ), #164, .F. ) ;
#357 = PLANE ( 'NONE',  #257 ) ;
#358 = ORIENTED_EDGE ( 'NONE', *, *, #123, .F. ) ;
#359 = DIRECTION ( 'NONE',  ( 1.000000000000000000, -0.0000000000000000000, -0.0000000000000000000 ) ) ;
#360 = CARTESIAN_POINT ( 'NONE',  ( 64.14000000000000100, 13.63999999999999900, -148.0000000000000000 ) ) ;
#361 = ORIENTED_EDGE ( 'NONE', *, *, #398, .T. ) ;
#362 = ORIENTED_EDGE ( 'NONE', *, *, #46, .T. ) ;
#363 = ORIENTED_EDGE ( 'NONE', *, *, #125, .F. ) ;
#364 = ORIENTED_EDGE ( 'NONE', *, *, #381, .F. ) ;
#365 = EDGE_CURVE ( 'NONE', #255, #281, #80, .T. ) ;
#366 = DIRECTION ( 'NONE',  ( 0.0000000000000000000, 1.000000000000000000, 0.0000000000000000000 ) ) ;
#367 = EDGE_CURVE ( 'NONE', #262, #216, #73, .T. ) ;
#368 = ORIENTED_EDGE ( 'NONE', *, *, #94, .F. ) ;
#369 = VERTEX_POINT ( 'NONE', #133 ) ;
#370 = DIRECTION ( 'NONE',  ( 0.0000000000000000000, 0.0000000000000000000, -1.000000000000000000 ) ) ;
#371 = CARTESIAN_POINT ( 'NONE',  ( -63.00000000000000000, 1.799999999999996000, -148.0000000000000000 ) ) ;
#372 = EDGE_CURVE ( 'NONE', #379, #298, #57, .T. ) ;
#373 = DIRECTION ( 'NONE',  ( 0.0000000000000000000, 0.0000000000000000000, 1.000000000000000000 ) ) ;
#374 = CARTESIAN_POINT ( 'NONE',  ( 61.00000000000000000, 101.0000000000000000, -150.0000000000000000 ) ) ;
#375 = ORIENTED_EDGE ( 'NONE', *, *, #219, .T. ) ;
#376 = CLOSED_SHELL ( 'NONE', ( #203, #6, #259, #341, #295, #4, #3, #41, #356, #118, #245, #12 ) ) ;
#377 = ORIENTED_EDGE ( 'NONE', *, *, #26, .T. ) ;
#378 = ORIENTED_EDGE ( 'NONE', *, *, #123, .T. ) ;
#379 = VERTEX_POINT ( 'NONE', #172 ) ;
#380 = EDGE_CURVE ( 'NONE', #317, #255, #79, .T. ) ;
#381 = EDGE_CURVE ( 'NONE', #379, #326, #221, .T. ) ;
#382 = ORIENTED_EDGE ( 'NONE', *, *, #134, .F. ) ;
#383 = ORIENTED_EDGE ( 'NONE', *, *, #94, .T. ) ;
#384 = ORIENTED_EDGE ( 'NONE', *, *, #372, .T. ) ;
#385 = EDGE_CURVE ( 'NONE', #326, #342, #66, .T. ) ;
#386 = EDGE_CURVE ( 'NONE', #241, #262, #112, .T. ) ;
#387 = ORIENTED_EDGE ( 'NONE', *, *, #223, .T. ) ;
#388 = ORIENTED_EDGE ( 'NONE', *, *, #395, .F. ) ;
#389 = CARTESIAN_POINT ( 'NONE',  ( 64.79999999999999700, -7.806255641895631900E-015, 0.0000000000000000000 ) ) ;
#390 = CARTESIAN_POINT ( 'NONE',  ( 64.79999999999999700, -7.806255641895631900E-015, 0.0000000000000000000 ) ) ;
#391 = ORIENTED_EDGE ( 'NONE', *, *, #380, .T. ) ;
#392 = EDGE_CURVE ( 'NONE', #342, #273, #61, .T. ) ;
#393 = ORIENTED_EDGE ( 'NONE', *, *, #337, .T. ) ;
#394 = DIRECTION ( 'NONE',  ( -1.000000000000000000, 0.0000000000000000000, -0.0000000000000000000 ) ) ;
#395 = EDGE_CURVE ( 'NONE', #281, #355, #331, .T. ) ;
#396 = DIRECTION ( 'NONE',  ( 0.0000000000000000000, 0.0000000000000000000, -1.000000000000000000 ) ) ;
#397 = SHAPE_DEFINITION_REPRESENTATION ( #15, #105 ) ;
#398 = EDGE_CURVE ( 'NONE', #306, #355, #48, .T. ) ;
#399 = CARTESIAN_POINT ( 'NONE',  ( 64.79999999999999700, 1.799999999999996000, -148.0000000000000000 ) ) ;
#400 = MANIFOLD_SOLID_BREP ( 'Cut-Extrude1', #376 ) ;
ENDSEC;
END-ISO-10303-21;
