ISO-10303-21;
HEADER;
FILE_DESCRIPTION (( 'STEP AP214' ),
    '1' );
FILE_NAME ('6163041.stp',
    '2016-08-10T13:03:09',
    ( '' ),
    ( '' ),
    'SwSTEP 2.0',
    'SolidWorks 2014',
    '' );
FILE_SCHEMA (( 'AUTOMOTIVE_DESIGN' ));
ENDSEC;

DATA;
#1 = PLANE ( 'NONE',  #187 ) ;
#2 = ADVANCED_FACE ( 'NONE', ( #148 ), #260, .F. ) ;
#3 = EDGE_CURVE ( 'NONE', #306, #352, #140, .T. ) ;
#4 = LINE ( 'NONE', #142, #11 ) ;
#5 = EDGE_LOOP ( 'NONE', ( #233, #342, #218, #232, #237, #238, #240, #241 ) ) ;
#6 = EDGE_LOOP ( 'NONE', ( #332, #336, #345, #349 ) ) ;
#7 = ADVANCED_FACE ( 'NONE', ( #396 ), #289, .F. ) ;
#8 = LINE ( 'NONE', #137, #353 ) ;
#9 = VECTOR ( 'NONE', #186, 1000.000000000000000 ) ;
#10 = DIRECTION ( 'NONE',  ( -0.0000000000000000000, 0.0000000000000000000, 1.000000000000000000 ) ) ;
#11 = VECTOR ( 'NONE', #138, 1000.000000000000000 ) ;
#12 = FACE_OUTER_BOUND ( 'NONE', #5, .T. ) ;
#13 = PRODUCT_DEFINITION_FORMATION_WITH_SPECIFIED_SOURCE ( 'ANY', '', #313, .NOT_KNOWN. ) ;
#14 = PRODUCT_DEFINITION ( 'UNKNOWN', '', #13, #195 ) ;
#15 = VECTOR ( 'NONE', #184, 1000.000000000000000 ) ;
#16 = EDGE_CURVE ( 'NONE', #228, #370, #133, .T. ) ;
#17 = APPLICATION_PROTOCOL_DEFINITION ( 'draft international standard', 'automotive_design', 1998, #18 ) ;
#18 = APPLICATION_CONTEXT ( 'automotive_design' ) ;
#19 = VECTOR ( 'NONE', #216, 1000.000000000000000 ) ;
#20 = AXIS2_PLACEMENT_3D ( 'NONE', #63, #26, #25 ) ;
#21 = LINE ( 'NONE', #193, #15 ) ;
#22 = LINE ( 'NONE', #202, #9 ) ;
#23 = PRODUCT_CONTEXT ( 'NONE', #145, 'mechanical' ) ;
#24 = VECTOR ( 'NONE', #225, 1000.000000000000000 ) ;
#25 = DIRECTION ( 'NONE',  ( 1.000000000000000000, 0.0000000000000000000, 0.0000000000000000000 ) ) ;
#26 = DIRECTION ( 'NONE',  ( 0.0000000000000000000, 0.0000000000000000000, 1.000000000000000000 ) ) ;
#27 = VECTOR ( 'NONE', #217, 1000.000000000000000 ) ;
#28 = LINE ( 'NONE', #242, #27 ) ;
#29 =( NAMED_UNIT ( * ) SI_UNIT ( $, .STERADIAN. ) SOLID_ANGLE_UNIT ( ) );
#30 =( NAMED_UNIT ( * ) PLANE_ANGLE_UNIT ( ) SI_UNIT ( $, .RADIAN. ) );
#31 = VECTOR ( 'NONE', #239, 1000.000000000000000 ) ;
#32 = DIRECTION ( 'NONE',  ( 1.000000000000000000, 0.0000000000000000000, 0.0000000000000000000 ) ) ;
#33 = FACE_OUTER_BOUND ( 'NONE', #224, .T. ) ;
#34 =( LENGTH_UNIT ( ) NAMED_UNIT ( * ) SI_UNIT ( .MILLI., .METRE. ) );
#35 =( LENGTH_UNIT ( ) NAMED_UNIT ( * ) SI_UNIT ( .MILLI., .METRE. ) );
#36 =( GEOMETRIC_REPRESENTATION_CONTEXT ( 3 ) GLOBAL_UNCERTAINTY_ASSIGNED_CONTEXT ( ( #170 ) ) GLOBAL_UNIT_ASSIGNED_CONTEXT ( ( #35, #30, #29 ) ) REPRESENTATION_CONTEXT ( 'NONE', 'WORKASPACE' ) );
#37 = VECTOR ( 'NONE', #276, 1000.000000000000000 ) ;
#38 = SURFACE_STYLE_USAGE ( .BOTH. , #40 ) ;
#39 = MECHANICAL_DESIGN_GEOMETRIC_PRESENTATION_REPRESENTATION (  '', ( #49 ), #36 ) ;
#40 = SURFACE_SIDE_STYLE ('',( #191 ) ) ;
#41 = FILL_AREA_STYLE ('',( #42 ) ) ;
#42 = FILL_AREA_STYLE_COLOUR ( '', #280 ) ;
#43 = EDGE_CURVE ( 'NONE', #251, #319, #139, .T. ) ;
#44 = VERTEX_POINT ( 'NONE', #74 ) ;
#45 = LINE ( 'NONE', #261, #37 ) ;
#46 = ORIENTED_EDGE ( 'NONE', *, *, #394, .T. ) ;
#47 = LINE ( 'NONE', #236, #31 ) ;
#48 = PRESENTATION_LAYER_ASSIGNMENT (  '', '', ( #49 ) ) ;
#49 = STYLED_ITEM ( 'NONE', ( #52 ), #400 ) ;
#50 = APPLICATION_PROTOCOL_DEFINITION ( 'draft international standard', 'automotive_design', 1998, #145 ) ;
#51 = LINE ( 'NONE', #221, #19 ) ;
#52 = PRESENTATION_STYLE_ASSIGNMENT (( #38 ) ) ;
#53 = PLANE ( 'NONE',  #204 ) ;
#54 = LINE ( 'NONE', #343, #117 ) ;
#55 = FACE_OUTER_BOUND ( 'NONE', #174, .T. ) ;
#56 = SURFACE_SIDE_STYLE ('',( #100 ) ) ;
#57 =( NAMED_UNIT ( * ) SI_UNIT ( $, .STERADIAN. ) SOLID_ANGLE_UNIT ( ) );
#58 =( NAMED_UNIT ( * ) PLANE_ANGLE_UNIT ( ) SI_UNIT ( $, .RADIAN. ) );
#59 = AXIS2_PLACEMENT_3D ( 'NONE', #167, #162, #156 ) ;
#60 = EDGE_CURVE ( 'NONE', #192, #319, #120, .T. ) ;
#61 = LINE ( 'NONE', #362, #95 ) ;
#62 =( LENGTH_UNIT ( ) NAMED_UNIT ( * ) SI_UNIT ( .MILLI., .METRE. ) );
#63 = CARTESIAN_POINT ( 'NONE',  ( 0.0000000000000000000, 0.0000000000000000000, 0.0000000000000000000 ) ) ;
#64 = VECTOR ( 'NONE', #348, 1000.000000000000000 ) ;
#65 = LINE ( 'NONE', #112, #279 ) ;
#66 = FACE_OUTER_BOUND ( 'NONE', #323, .T. ) ;
#67 = FACE_OUTER_BOUND ( 'NONE', #278, .T. ) ;
#68 = DIRECTION ( 'NONE',  ( -0.0000000000000000000, -0.0000000000000000000, 1.000000000000000000 ) ) ;
#69 =( GEOMETRIC_REPRESENTATION_CONTEXT ( 3 ) GLOBAL_UNCERTAINTY_ASSIGNED_CONTEXT ( ( #75 ) ) GLOBAL_UNIT_ASSIGNED_CONTEXT ( ( #62, #58, #57 ) ) REPRESENTATION_CONTEXT ( 'NONE', 'WORKASPACE' ) );
#70 = EDGE_CURVE ( 'NONE', #199, #192, #127, .T. ) ;
#71 = DIRECTION ( 'NONE',  ( -0.0000000000000000000, -0.0000000000000000000, 1.000000000000000000 ) ) ;
#72 = FACE_OUTER_BOUND ( 'NONE', #198, .T. ) ;
#73 = CARTESIAN_POINT ( 'NONE',  ( -64.79999999999999700, -7.806255641895631900E-015, 0.0000000000000000000 ) ) ;
#74 = CARTESIAN_POINT ( 'NONE',  ( -64.79999999999999700, -7.806255641895631900E-015, -148.0000000000000000 ) ) ;
#75 = UNCERTAINTY_MEASURE_WITH_UNIT (LENGTH_MEASURE( 1.000000000000000100E-005 ), #62, 'distance_accuracy_value', 'NONE');
#76 = CARTESIAN_POINT ( 'NONE',  ( 61.00000000000000000, 1.799999999999999800, -148.0000000000000000 ) ) ;
#77 = DIRECTION ( 'NONE',  ( -0.0000000000000000000, -1.000000000000000000, -0.0000000000000000000 ) ) ;
#78 = EDGE_CURVE ( 'NONE', #333, #257, #132, .T. ) ;
#79 = DIRECTION ( 'NONE',  ( -0.0000000000000000000, -1.000000000000000000, -0.0000000000000000000 ) ) ;
#80 = EDGE_CURVE ( 'NONE', #192, #333, #113, .T. ) ;
#81 =( NAMED_UNIT ( * ) SI_UNIT ( $, .STERADIAN. ) SOLID_ANGLE_UNIT ( ) );
#82 = CARTESIAN_POINT ( 'NONE',  ( -64.79999999999999700, -7.806255641895631900E-015, -148.0000000000000000 ) ) ;
#83 =( NAMED_UNIT ( * ) PLANE_ANGLE_UNIT ( ) SI_UNIT ( $, .RADIAN. ) );
#84 = PLANE ( 'NONE',  #179 ) ;
#85 = SHAPE_DEFINITION_REPRESENTATION ( #129, #400 ) ;
#86 = EDGE_CURVE ( 'NONE', #257, #291, #105, .T. ) ;
#87 = SURFACE_STYLE_USAGE ( .BOTH. , #56 ) ;
#88 = PRESENTATION_STYLE_ASSIGNMENT (( #87 ) ) ;
#89 = DIRECTION ( 'NONE',  ( 1.000000000000000000, -0.0000000000000000000, -0.0000000000000000000 ) ) ;
#90 = ORIENTED_EDGE ( 'NONE', *, *, #78, .T. ) ;
#91 = COLOUR_RGB ( '',0.7529411764705882200, 0.7529411764705882200, 0.7529411764705882200 ) ;
#92 = FACE_OUTER_BOUND ( 'NONE', #6, .T. ) ;
#93 = DIRECTION ( 'NONE',  ( -0.0000000000000000000, -1.000000000000000000, -0.0000000000000000000 ) ) ;
#94 = VECTOR ( 'NONE', #89, 1000.000000000000000 ) ;
#95 = VECTOR ( 'NONE', #358, 1000.000000000000000 ) ;
#96 = EDGE_CURVE ( 'NONE', #44, #250, #111, .T. ) ;
#97 = DIRECTION ( 'NONE',  ( 0.0000000000000000000, -1.000000000000000000, 0.0000000000000000000 ) ) ;
#98 = VECTOR ( 'NONE', #115, 1000.000000000000000 ) ;
#99 = CARTESIAN_POINT ( 'NONE',  ( -61.00000000000000000, 1.799999999999999800, -148.0000000000000000 ) ) ;
#100 = SURFACE_STYLE_FILL_AREA ( #205 ) ;
#101 = AXIS2_PLACEMENT_3D ( 'NONE', #208, #201, #196 ) ;
#102 = FILL_AREA_STYLE_COLOUR ( '', #91 ) ;
#103 = VECTOR ( 'NONE', #151, 1000.000000000000000 ) ;
#104 = DIRECTION ( 'NONE',  ( -0.0000000000000000000, 1.574409571460887700E-016, -1.000000000000000000 ) ) ;
#105 = LINE ( 'NONE', #118, #98 ) ;
#106 = MANIFOLD_SOLID_BREP ( 'Cut-Extrude1', #393 ) ;
#107 = DIRECTION ( 'NONE',  ( -1.000000000000000000, -0.0000000000000000000, -0.0000000000000000000 ) ) ;
#108 = DIRECTION ( 'NONE',  ( 1.000000000000000000, -0.0000000000000000000, -0.0000000000000000000 ) ) ;
#109 = VECTOR ( 'NONE', #168, 1000.000000000000000 ) ;
#110 = LINE ( 'NONE', #119, #368 ) ;
#111 = LINE ( 'NONE', #178, #94 ) ;
#112 = CARTESIAN_POINT ( 'NONE',  ( 61.00000000000000000, 0.0000000000000000000, -150.0000000000000000 ) ) ;
#113 = LINE ( 'NONE', #226, #103 ) ;
#114 = FACE_OUTER_BOUND ( 'NONE', #190, .T. ) ;
#115 = DIRECTION ( 'NONE',  ( 0.0000000000000000000, -1.000000000000000000, 0.0000000000000000000 ) ) ;
#116 = VECTOR ( 'NONE', #131, 1000.000000000000000 ) ;
#117 = VECTOR ( 'NONE', #331, 1000.000000000000000 ) ;
#118 = CARTESIAN_POINT ( 'NONE',  ( -61.00000000000000000, 101.0000000000000000, -148.0999999999999900 ) ) ;
#119 = CARTESIAN_POINT ( 'NONE',  ( 61.00000000000000000, -3.148819142921778400E-016, -148.0000000000000000 ) ) ;
#120 = LINE ( 'NONE', #259, #116 ) ;
#121 = CARTESIAN_POINT ( 'NONE',  ( 64.79999999999999700, -7.806255641895631900E-015, -148.0000000000000000 ) ) ;
#122 = CARTESIAN_POINT ( 'NONE',  ( 61.00000000000000000, 0.0000000000000000000, -150.0000000000000000 ) ) ;
#123 = AXIS2_PLACEMENT_3D ( 'NONE', #268, #264, #262 ) ;
#124 = AXIS2_PLACEMENT_3D ( 'NONE', #286, #309, #281 ) ;
#125 = CARTESIAN_POINT ( 'NONE',  ( 61.00000000000000000, 1.799999999999999800, -148.0999999999999900 ) ) ;
#126 = ADVANCED_FACE ( 'NONE', ( #72 ), #53, .F. ) ;
#127 = LINE ( 'NONE', #157, #134 ) ;
#128 = VECTOR ( 'NONE', #290, 1000.000000000000000 ) ;
#129 = PRODUCT_DEFINITION_SHAPE ( 'NONE', 'NONE',  #14 ) ;
#130 = DIRECTION ( 'NONE',  ( 0.0000000000000000000, 0.0000000000000000000, 1.000000000000000000 ) ) ;
#131 = DIRECTION ( 'NONE',  ( -1.000000000000000000, -0.0000000000000000000, -0.0000000000000000000 ) ) ;
#132 = LINE ( 'NONE', #212, #109 ) ;
#133 = LINE ( 'NONE', #234, #143 ) ;
#134 = VECTOR ( 'NONE', #203, 1000.000000000000000 ) ;
#135 = ORIENTED_EDGE ( 'NONE', *, *, #364, .T. ) ;
#136 = CARTESIAN_POINT ( 'NONE',  ( -61.00000000000000000, 0.0000000000000000000, -150.0000000000000000 ) ) ;
#137 = CARTESIAN_POINT ( 'NONE',  ( -64.79999999999999700, -7.806255641895631900E-015, -148.0000000000000000 ) ) ;
#138 = DIRECTION ( 'NONE',  ( 1.000000000000000000, -0.0000000000000000000, -0.0000000000000000000 ) ) ;
#139 = LINE ( 'NONE', #269, #128 ) ;
#140 = LINE ( 'NONE', #294, #147 ) ;
#141 = ADVANCED_FACE ( 'NONE', ( #92 ), #395, .F. ) ;
#142 = CARTESIAN_POINT ( 'NONE',  ( 64.79999999999999700, -7.806255641895631900E-015, 0.0000000000000000000 ) ) ;
#143 = VECTOR ( 'NONE', #108, 1000.000000000000000 ) ;
#144 = ADVANCED_FACE ( 'NONE', ( #66 ), #1, .T. ) ;
#145 = APPLICATION_CONTEXT ( 'automotive_design' ) ;
#146 = EDGE_CURVE ( 'NONE', #176, #222, #61, .T. ) ;
#147 = VECTOR ( 'NONE', #254, 1000.000000000000000 ) ;
#148 = FACE_OUTER_BOUND ( 'NONE', #371, .T. ) ;
#149 = ORIENTED_EDGE ( 'NONE', *, *, #398, .F. ) ;
#150 = LINE ( 'NONE', #188, #374 ) ;
#151 = DIRECTION ( 'NONE',  ( 0.0000000000000000000, 0.0000000000000000000, 1.000000000000000000 ) ) ;
#152 = ORIENTED_EDGE ( 'NONE', *, *, #377, .T. ) ;
#153 = LINE ( 'NONE', #136, #209 ) ;
#154 = VERTEX_POINT ( 'NONE', #383 ) ;
#155 = CARTESIAN_POINT ( 'NONE',  ( 61.00000000000000000, 101.0000000000000000, -150.0000000000000000 ) ) ;
#156 = DIRECTION ( 'NONE',  ( 0.0000000000000000000, -0.0000000000000000000, 1.000000000000000000 ) ) ;
#157 = CARTESIAN_POINT ( 'NONE',  ( 61.00000000000000000, 101.0000000000000000, -150.0000000000000000 ) ) ;
#158 = ADVANCED_FACE ( 'NONE', ( #67 ), #84, .T. ) ;
#159 = ORIENTED_EDGE ( 'NONE', *, *, #16, .T. ) ;
#160 = ORIENTED_EDGE ( 'NONE', *, *, #96, .F. ) ;
#161 = ORIENTED_EDGE ( 'NONE', *, *, #335, .T. ) ;
#162 = DIRECTION ( 'NONE',  ( 0.0000000000000000000, 1.000000000000000000, 0.0000000000000000000 ) ) ;
#163 = PLANE ( 'NONE',  #59 ) ;
#164 = AXIS2_PLACEMENT_3D ( 'NONE', #308, #298, #297 ) ;
#165 = CARTESIAN_POINT ( 'NONE',  ( -64.79999999999999700, 1.799999999999996000, -148.0000000000000000 ) ) ;
#166 = EDGE_CURVE ( 'NONE', #367, #291, #312, .T. ) ;
#167 = CARTESIAN_POINT ( 'NONE',  ( -63.00000000000000000, 1.799999999999996000, -148.0000000000000000 ) ) ;
#168 = DIRECTION ( 'NONE',  ( -1.000000000000000000, -0.0000000000000000000, -0.0000000000000000000 ) ) ;
#169 = EDGE_LOOP ( 'NONE', ( #272, #263, #304, #315 ) ) ;
#170 = UNCERTAINTY_MEASURE_WITH_UNIT (LENGTH_MEASURE( 1.000000000000000100E-005 ), #35, 'distance_accuracy_value', 'NONE');
#171 = EDGE_LOOP ( 'NONE', ( #180, #181, #200, #211 ) ) ;
#172 = VECTOR ( 'NONE', #77, 1000.000000000000000 ) ;
#173 = AXIS2_PLACEMENT_3D ( 'NONE', #327, #322, #321 ) ;
#174 = EDGE_LOOP ( 'NONE', ( #354, #355, #360, #90 ) ) ;
#175 = DIRECTION ( 'NONE',  ( -0.0000000000000000000, 1.574409571460887700E-016, -1.000000000000000000 ) ) ;
#176 = VERTEX_POINT ( 'NONE', #346 ) ;
#177 = VERTEX_POINT ( 'NONE', #366 ) ;
#178 = CARTESIAN_POINT ( 'NONE',  ( 64.79999999999999700, -7.806255641895631900E-015, -148.0000000000000000 ) ) ;
#179 = AXIS2_PLACEMENT_3D ( 'NONE', #365, #351, #350 ) ;
#180 = ORIENTED_EDGE ( 'NONE', *, *, #318, .F. ) ;
#181 = ORIENTED_EDGE ( 'NONE', *, *, #378, .T. ) ;
#182 = DIRECTION ( 'NONE',  ( -0.0000000000000000000, -1.000000000000000000, -0.0000000000000000000 ) ) ;
#183 = UNCERTAINTY_MEASURE_WITH_UNIT (LENGTH_MEASURE( 1.000000000000000100E-005 ), #34, 'distance_accuracy_value', 'NONE');
#184 = DIRECTION ( 'NONE',  ( 0.0000000000000000000, 0.0000000000000000000, 1.000000000000000000 ) ) ;
#185 = EDGE_CURVE ( 'NONE', #333, #367, #54, .T. ) ;
#186 = DIRECTION ( 'NONE',  ( 0.0000000000000000000, 0.0000000000000000000, -1.000000000000000000 ) ) ;
#187 = AXIS2_PLACEMENT_3D ( 'NONE', #390, #379, #299 ) ;
#188 = CARTESIAN_POINT ( 'NONE',  ( -61.00000000000000000, -3.148819142921778400E-016, -148.0000000000000000 ) ) ;
#189 = AXIS2_PLACEMENT_3D ( 'NONE', #399, #97, #386 ) ;
#190 = EDGE_LOOP ( 'NONE', ( #245, #391, #244, #149, #382, #387 ) ) ;
#191 = SURFACE_STYLE_FILL_AREA ( #41 ) ;
#192 = VERTEX_POINT ( 'NONE', #344 ) ;
#193 = CARTESIAN_POINT ( 'NONE',  ( 64.79999999999999700, -7.806255641895631900E-015, -148.0000000000000000 ) ) ;
#194 = PRODUCT_RELATED_PRODUCT_CATEGORY ( 'part', '', ( #313 ) ) ;
#195 = PRODUCT_DEFINITION_CONTEXT ( 'detailed design', #18, 'design' ) ;
#196 = DIRECTION ( 'NONE',  ( 0.0000000000000000000, 0.0000000000000000000, 1.000000000000000000 ) ) ;
#197 = ADVANCED_FACE ( 'NONE', ( #55 ), #338, .F. ) ;
#198 = EDGE_LOOP ( 'NONE', ( #301, #307, #287, #316 ) ) ;
#199 = VERTEX_POINT ( 'NONE', #339 ) ;
#200 = ORIENTED_EDGE ( 'NONE', *, *, #359, .T. ) ;
#201 = DIRECTION ( 'NONE',  ( -1.000000000000000000, 0.0000000000000000000, 0.0000000000000000000 ) ) ;
#202 = CARTESIAN_POINT ( 'NONE',  ( 64.79999999999999700, 1.799999999999996000, -148.0000000000000000 ) ) ;
#203 = DIRECTION ( 'NONE',  ( -0.0000000000000000000, 1.000000000000000000, -0.0000000000000000000 ) ) ;
#204 = AXIS2_PLACEMENT_3D ( 'NONE', #155, #10, #32 ) ;
#205 = FILL_AREA_STYLE ('',( #102 ) ) ;
#206 = VERTEX_POINT ( 'NONE', #314 ) ;
#207 = DIRECTION ( 'NONE',  ( 0.0000000000000000000, 0.0000000000000000000, 1.000000000000000000 ) ) ;
#208 = CARTESIAN_POINT ( 'NONE',  ( -61.00000000000000000, 0.0000000000000000000, 0.0000000000000000000 ) ) ;
#209 = VECTOR ( 'NONE', #175, 1000.000000000000000 ) ;
#210 = VERTEX_POINT ( 'NONE', #311 ) ;
#211 = ORIENTED_EDGE ( 'NONE', *, *, #389, .F. ) ;
#212 = CARTESIAN_POINT ( 'NONE',  ( 61.00000000000000000, 101.0000000000000000, -148.0999999999999900 ) ) ;
#213 = ORIENTED_EDGE ( 'NONE', *, *, #372, .F. ) ;
#214 = PLANE ( 'NONE',  #101 ) ;
#215 =( GEOMETRIC_REPRESENTATION_CONTEXT ( 3 ) GLOBAL_UNCERTAINTY_ASSIGNED_CONTEXT ( ( #183 ) ) GLOBAL_UNIT_ASSIGNED_CONTEXT ( ( #34, #83, #81 ) ) REPRESENTATION_CONTEXT ( 'NONE', 'WORKASPACE' ) );
#216 = DIRECTION ( 'NONE',  ( 0.0000000000000000000, 1.000000000000000000, 0.0000000000000000000 ) ) ;
#217 = DIRECTION ( 'NONE',  ( 0.0000000000000000000, 1.000000000000000000, 0.0000000000000000000 ) ) ;
#218 = ORIENTED_EDGE ( 'NONE', *, *, #166, .T. ) ;
#219 = VECTOR ( 'NONE', #71, 1000.000000000000000 ) ;
#220 = MECHANICAL_DESIGN_GEOMETRIC_PRESENTATION_REPRESENTATION (  '', ( #256 ), #215 ) ;
#221 = CARTESIAN_POINT ( 'NONE',  ( 64.79999999999999700, -7.806255641895631900E-015, 0.0000000000000000000 ) ) ;
#222 = VERTEX_POINT ( 'NONE', #317 ) ;
#223 = ORIENTED_EDGE ( 'NONE', *, *, #70, .T. ) ;
#224 = EDGE_LOOP ( 'NONE', ( #270, #271, #285, #295 ) ) ;
#225 = DIRECTION ( 'NONE',  ( 0.0000000000000000000, 0.0000000000000000000, 1.000000000000000000 ) ) ;
#226 = CARTESIAN_POINT ( 'NONE',  ( 61.00000000000000000, 101.0000000000000000, -150.0000000000000000 ) ) ;
#227 = PRESENTATION_LAYER_ASSIGNMENT (  '', '', ( #256 ) ) ;
#228 = VERTEX_POINT ( 'NONE', #310 ) ;
#229 = EDGE_LOOP ( 'NONE', ( #223, #375, #376, #46, #380, #152 ) ) ;
#230 = CARTESIAN_POINT ( 'NONE',  ( 61.00000000000000000, 101.0000000000000000, -148.0999999999999900 ) ) ;
#231 = CARTESIAN_POINT ( 'NONE',  ( -61.00000000000000000, 101.0000000000000000, -150.0000000000000000 ) ) ;
#232 = ORIENTED_EDGE ( 'NONE', *, *, #398, .T. ) ;
#233 = ORIENTED_EDGE ( 'NONE', *, *, #303, .T. ) ;
#234 = CARTESIAN_POINT ( 'NONE',  ( 64.79999999999999700, -7.806255641895631900E-015, -148.0000000000000000 ) ) ;
#235 = ADVANCED_FACE ( 'NONE', ( #320 ), #305, .T. ) ;
#236 = CARTESIAN_POINT ( 'NONE',  ( -64.79999999999999700, 1.799999999999996000, -148.0000000000000000 ) ) ;
#237 = ORIENTED_EDGE ( 'NONE', *, *, #3, .T. ) ;
#238 = ORIENTED_EDGE ( 'NONE', *, *, #318, .T. ) ;
#239 = DIRECTION ( 'NONE',  ( 0.0000000000000000000, 0.0000000000000000000, 1.000000000000000000 ) ) ;
#240 = ORIENTED_EDGE ( 'NONE', *, *, #146, .F. ) ;
#241 = ORIENTED_EDGE ( 'NONE', *, *, #341, .T. ) ;
#242 = CARTESIAN_POINT ( 'NONE',  ( 64.79999999999999700, -7.806255641895631900E-015, -148.0000000000000000 ) ) ;
#243 = LINE ( 'NONE', #76, #219 ) ;
#244 = ORIENTED_EDGE ( 'NONE', *, *, #337, .F. ) ;
#245 = ORIENTED_EDGE ( 'NONE', *, *, #43, .F. ) ;
#246 = ORIENTED_EDGE ( 'NONE', *, *, #378, .F. ) ;
#247 = AXIS2_PLACEMENT_3D ( 'NONE', #328, #282, #207 ) ;
#248 = CARTESIAN_POINT ( 'NONE',  ( -61.00000000000000000, 1.799999999999996000, -148.0000000000000000 ) ) ;
#249 = ADVANCED_FACE ( 'NONE', ( #252 ), #283, .F. ) ;
#250 = VERTEX_POINT ( 'NONE', #325 ) ;
#251 = VERTEX_POINT ( 'NONE', #274 ) ;
#252 = FACE_OUTER_BOUND ( 'NONE', #169, .T. ) ;
#253 = CARTESIAN_POINT ( 'NONE',  ( -61.00000000000000000, 1.799999999999999800, -148.0999999999999900 ) ) ;
#254 = DIRECTION ( 'NONE',  ( -1.000000000000000000, -0.0000000000000000000, -0.0000000000000000000 ) ) ;
#255 = CARTESIAN_POINT ( 'NONE',  ( -61.00000000000000000, 101.0000000000000000, -150.0000000000000000 ) ) ;
#256 = STYLED_ITEM ( 'NONE', ( #88 ), #106 ) ;
#257 = VERTEX_POINT ( 'NONE', #273 ) ;
#258 = LINE ( 'NONE', #231, #24 ) ;
#259 = CARTESIAN_POINT ( 'NONE',  ( 61.00000000000000000, 101.0000000000000000, -150.0000000000000000 ) ) ;
#260 = PLANE ( 'NONE',  #267 ) ;
#261 = CARTESIAN_POINT ( 'NONE',  ( -63.00000000000000000, 1.799999999999996000, -148.0000000000000000 ) ) ;
#262 = DIRECTION ( 'NONE',  ( 1.000000000000000000, 0.0000000000000000000, -0.0000000000000000000 ) ) ;
#263 = ORIENTED_EDGE ( 'NONE', *, *, #326, .F. ) ;
#264 = DIRECTION ( 'NONE',  ( 0.0000000000000000000, 0.0000000000000000000, 1.000000000000000000 ) ) ;
#265 = ORIENTED_EDGE ( 'NONE', *, *, #3, .F. ) ;
#266 = CARTESIAN_POINT ( 'NONE',  ( 64.14000000000000100, 13.63999999999999900, -148.0000000000000000 ) ) ;
#267 = AXIS2_PLACEMENT_3D ( 'NONE', #266, #363, #277 ) ;
#268 = CARTESIAN_POINT ( 'NONE',  ( 64.14000000000000100, 13.63999999999999900, 0.0000000000000000000 ) ) ;
#269 = CARTESIAN_POINT ( 'NONE',  ( -61.00000000000000000, 101.0000000000000000, -150.0000000000000000 ) ) ;
#270 = ORIENTED_EDGE ( 'NONE', *, *, #146, .T. ) ;
#271 = ORIENTED_EDGE ( 'NONE', *, *, #389, .T. ) ;
#272 = ORIENTED_EDGE ( 'NONE', *, *, #303, .F. ) ;
#273 = CARTESIAN_POINT ( 'NONE',  ( -61.00000000000000000, 101.0000000000000000, -148.0999999999999900 ) ) ;
#274 = CARTESIAN_POINT ( 'NONE',  ( -61.00000000000000000, 0.0000000000000000000, -150.0000000000000000 ) ) ;
#275 = ORIENTED_EDGE ( 'NONE', *, *, #356, .F. ) ;
#276 = DIRECTION ( 'NONE',  ( -1.000000000000000000, -0.0000000000000000000, -0.0000000000000000000 ) ) ;
#277 = DIRECTION ( 'NONE',  ( 1.000000000000000000, 0.0000000000000000000, -0.0000000000000000000 ) ) ;
#278 = EDGE_LOOP ( 'NONE', ( #340, #369, #361, #397 ) ) ;
#279 = VECTOR ( 'NONE', #104, 1000.000000000000000 ) ;
#280 = COLOUR_RGB ( '',0.7529411764705882200, 0.7529411764705882200, 0.7529411764705882200 ) ;
#281 = DIRECTION ( 'NONE',  ( 1.000000000000000000, 0.0000000000000000000, -0.0000000000000000000 ) ) ;
#282 = DIRECTION ( 'NONE',  ( -1.000000000000000000, 0.0000000000000000000, 0.0000000000000000000 ) ) ;
#283 = PLANE ( 'NONE',  #124 ) ;
#284 = ADVANCED_FACE ( 'NONE', ( #33 ), #288, .T. ) ;
#285 = ORIENTED_EDGE ( 'NONE', *, *, #356, .T. ) ;
#286 = CARTESIAN_POINT ( 'NONE',  ( 64.14000000000000100, 13.63999999999999900, -148.0000000000000000 ) ) ;
#287 = ORIENTED_EDGE ( 'NONE', *, *, #70, .F. ) ;
#288 = PLANE ( 'NONE',  #123 ) ;
#289 = PLANE ( 'NONE',  #247 ) ;
#290 = DIRECTION ( 'NONE',  ( -0.0000000000000000000, 1.000000000000000000, -0.0000000000000000000 ) ) ;
#291 = VERTEX_POINT ( 'NONE', #253 ) ;
#292 = LINE ( 'NONE', #73, #388 ) ;
#293 = ORIENTED_EDGE ( 'NONE', *, *, #377, .F. ) ;
#294 = CARTESIAN_POINT ( 'NONE',  ( -63.00000000000000000, 1.799999999999996000, -148.0000000000000000 ) ) ;
#295 = ORIENTED_EDGE ( 'NONE', *, *, #329, .T. ) ;
#296 = LINE ( 'NONE', #82, #172 ) ;
#297 = DIRECTION ( 'NONE',  ( 0.0000000000000000000, 0.0000000000000000000, 1.000000000000000000 ) ) ;
#298 = DIRECTION ( 'NONE',  ( -1.000000000000000000, 0.0000000000000000000, 0.0000000000000000000 ) ) ;
#299 = DIRECTION ( 'NONE',  ( 0.0000000000000000000, -0.0000000000000000000, -1.000000000000000000 ) ) ;
#300 = ORIENTED_EDGE ( 'NONE', *, *, #96, .T. ) ;
#301 = ORIENTED_EDGE ( 'NONE', *, *, #43, .T. ) ;
#302 = LINE ( 'NONE', #99, #385 ) ;
#303 = EDGE_CURVE ( 'NONE', #154, #210, #45, .T. ) ;
#304 = ORIENTED_EDGE ( 'NONE', *, *, #16, .F. ) ;
#305 = PLANE ( 'NONE',  #164 ) ;
#306 = VERTEX_POINT ( 'NONE', #248 ) ;
#307 = ORIENTED_EDGE ( 'NONE', *, *, #60, .F. ) ;
#308 = CARTESIAN_POINT ( 'NONE',  ( -64.79999999999999700, -7.806255641895631900E-015, -148.0000000000000000 ) ) ;
#309 = DIRECTION ( 'NONE',  ( 0.0000000000000000000, 0.0000000000000000000, 1.000000000000000000 ) ) ;
#310 = CARTESIAN_POINT ( 'NONE',  ( 61.00000000000000000, -3.148819142921778400E-016, -148.0000000000000000 ) ) ;
#311 = CARTESIAN_POINT ( 'NONE',  ( 61.00000000000000000, 1.799999999999996000, -148.0000000000000000 ) ) ;
#312 = LINE ( 'NONE', #357, #64 ) ;
#313 = PRODUCT ( '6163041', '6163041', '', ( #23 ) ) ;
#314 = CARTESIAN_POINT ( 'NONE',  ( -64.79999999999999700, -7.806255641895631900E-015, 0.0000000000000000000 ) ) ;
#315 = ORIENTED_EDGE ( 'NONE', *, *, #373, .F. ) ;
#316 = ORIENTED_EDGE ( 'NONE', *, *, #372, .T. ) ;
#317 = CARTESIAN_POINT ( 'NONE',  ( -64.79999999999999700, 1.799999999999996000, 0.0000000000000000000 ) ) ;
#318 = EDGE_CURVE ( 'NONE', #352, #222, #47, .T. ) ;
#319 = VERTEX_POINT ( 'NONE', #255 ) ;
#320 = FACE_OUTER_BOUND ( 'NONE', #171, .T. ) ;
#321 = DIRECTION ( 'NONE',  ( -1.000000000000000000, 0.0000000000000000000, -0.0000000000000000000 ) ) ;
#322 = DIRECTION ( 'NONE',  ( 0.0000000000000000000, 0.0000000000000000000, -1.000000000000000000 ) ) ;
#323 = EDGE_LOOP ( 'NONE', ( #275, #334, #300, #135, #213, #293, #159, #161 ) ) ;
#324 = EDGE_CURVE ( 'NONE', #319, #257, #258, .T. ) ;
#325 = CARTESIAN_POINT ( 'NONE',  ( -61.00000000000000000, -7.806255641895631900E-015, -148.0000000000000000 ) ) ;
#326 = EDGE_CURVE ( 'NONE', #370, #154, #28, .T. ) ;
#327 = CARTESIAN_POINT ( 'NONE',  ( 61.00000000000000000, 101.0000000000000000, -148.0999999999999900 ) ) ;
#328 = CARTESIAN_POINT ( 'NONE',  ( 61.00000000000000000, 0.0000000000000000000, 0.0000000000000000000 ) ) ;
#329 = EDGE_CURVE ( 'NONE', #177, #176, #51, .T. ) ;
#330 = ADVANCED_FACE ( 'NONE', ( #114 ), #214, .T. ) ;
#331 = DIRECTION ( 'NONE',  ( 0.0000000000000000000, -1.000000000000000000, 0.0000000000000000000 ) ) ;
#332 = ORIENTED_EDGE ( 'NONE', *, *, #324, .T. ) ;
#333 = VERTEX_POINT ( 'NONE', #230 ) ;
#334 = ORIENTED_EDGE ( 'NONE', *, *, #359, .F. ) ;
#335 = EDGE_CURVE ( 'NONE', #370, #177, #21, .T. ) ;
#336 = ORIENTED_EDGE ( 'NONE', *, *, #78, .F. ) ;
#337 = EDGE_CURVE ( 'NONE', #306, #250, #150, .T. ) ;
#338 = PLANE ( 'NONE',  #173 ) ;
#339 = CARTESIAN_POINT ( 'NONE',  ( 61.00000000000000000, 0.0000000000000000000, -150.0000000000000000 ) ) ;
#340 = ORIENTED_EDGE ( 'NONE', *, *, #341, .F. ) ;
#341 = EDGE_CURVE ( 'NONE', #176, #154, #22, .T. ) ;
#342 = ORIENTED_EDGE ( 'NONE', *, *, #394, .F. ) ;
#343 = CARTESIAN_POINT ( 'NONE',  ( 61.00000000000000000, 101.0000000000000000, -148.0999999999999900 ) ) ;
#344 = CARTESIAN_POINT ( 'NONE',  ( 61.00000000000000000, 101.0000000000000000, -150.0000000000000000 ) ) ;
#345 = ORIENTED_EDGE ( 'NONE', *, *, #80, .F. ) ;
#346 = CARTESIAN_POINT ( 'NONE',  ( 64.79999999999999700, 1.799999999999996000, 0.0000000000000000000 ) ) ;
#347 = ADVANCED_FACE ( 'NONE', ( #12 ), #163, .T. ) ;
#348 = DIRECTION ( 'NONE',  ( -1.000000000000000000, -0.0000000000000000000, -0.0000000000000000000 ) ) ;
#349 = ORIENTED_EDGE ( 'NONE', *, *, #60, .T. ) ;
#350 = DIRECTION ( 'NONE',  ( 0.0000000000000000000, 0.0000000000000000000, -1.000000000000000000 ) ) ;
#351 = DIRECTION ( 'NONE',  ( 1.000000000000000000, 0.0000000000000000000, 0.0000000000000000000 ) ) ;
#352 = VERTEX_POINT ( 'NONE', #165 ) ;
#353 = VECTOR ( 'NONE', #130, 1000.000000000000000 ) ;
#354 = ORIENTED_EDGE ( 'NONE', *, *, #86, .T. ) ;
#355 = ORIENTED_EDGE ( 'NONE', *, *, #166, .F. ) ;
#356 = EDGE_CURVE ( 'NONE', #206, #177, #4, .T. ) ;
#357 = CARTESIAN_POINT ( 'NONE',  ( 61.00000000000000000, 1.799999999999999800, -148.0999999999999900 ) ) ;
#358 = DIRECTION ( 'NONE',  ( -1.000000000000000000, -0.0000000000000000000, -0.0000000000000000000 ) ) ;
#359 = EDGE_CURVE ( 'NONE', #44, #206, #8, .T. ) ;
#360 = ORIENTED_EDGE ( 'NONE', *, *, #185, .F. ) ;
#361 = ORIENTED_EDGE ( 'NONE', *, *, #335, .F. ) ;
#362 = CARTESIAN_POINT ( 'NONE',  ( -63.00000000000000000, 1.799999999999996000, 0.0000000000000000000 ) ) ;
#363 = DIRECTION ( 'NONE',  ( 0.0000000000000000000, 0.0000000000000000000, 1.000000000000000000 ) ) ;
#364 = EDGE_CURVE ( 'NONE', #250, #251, #153, .T. ) ;
#365 = CARTESIAN_POINT ( 'NONE',  ( 64.79999999999999700, -7.806255641895631900E-015, -148.0000000000000000 ) ) ;
#366 = CARTESIAN_POINT ( 'NONE',  ( 64.79999999999999700, -7.806255641895631900E-015, 0.0000000000000000000 ) ) ;
#367 = VERTEX_POINT ( 'NONE', #125 ) ;
#368 = VECTOR ( 'NONE', #93, 1000.000000000000000 ) ;
#369 = ORIENTED_EDGE ( 'NONE', *, *, #329, .F. ) ;
#370 = VERTEX_POINT ( 'NONE', #121 ) ;
#371 = EDGE_LOOP ( 'NONE', ( #246, #265, #384, #160 ) ) ;
#372 = EDGE_CURVE ( 'NONE', #199, #251, #392, .T. ) ;
#373 = EDGE_CURVE ( 'NONE', #210, #228, #110, .T. ) ;
#374 = VECTOR ( 'NONE', #182, 1000.000000000000000 ) ;
#375 = ORIENTED_EDGE ( 'NONE', *, *, #80, .T. ) ;
#376 = ORIENTED_EDGE ( 'NONE', *, *, #185, .T. ) ;
#377 = EDGE_CURVE ( 'NONE', #228, #199, #65, .T. ) ;
#378 = EDGE_CURVE ( 'NONE', #352, #44, #296, .T. ) ;
#379 = DIRECTION ( 'NONE',  ( 0.0000000000000000000, -1.000000000000000000, 0.0000000000000000000 ) ) ;
#380 = ORIENTED_EDGE ( 'NONE', *, *, #373, .T. ) ;
#381 = VECTOR ( 'NONE', #107, 1000.000000000000000 ) ;
#382 = ORIENTED_EDGE ( 'NONE', *, *, #86, .F. ) ;
#383 = CARTESIAN_POINT ( 'NONE',  ( 64.79999999999999700, 1.799999999999996000, -148.0000000000000000 ) ) ;
#384 = ORIENTED_EDGE ( 'NONE', *, *, #337, .T. ) ;
#385 = VECTOR ( 'NONE', #68, 1000.000000000000000 ) ;
#386 = DIRECTION ( 'NONE',  ( 0.0000000000000000000, -0.0000000000000000000, -1.000000000000000000 ) ) ;
#387 = ORIENTED_EDGE ( 'NONE', *, *, #324, .F. ) ;
#388 = VECTOR ( 'NONE', #79, 1000.000000000000000 ) ;
#389 = EDGE_CURVE ( 'NONE', #222, #206, #292, .T. ) ;
#390 = CARTESIAN_POINT ( 'NONE',  ( 64.79999999999999700, -7.806255641895631900E-015, -148.0000000000000000 ) ) ;
#391 = ORIENTED_EDGE ( 'NONE', *, *, #364, .F. ) ;
#392 = LINE ( 'NONE', #122, #381 ) ;
#393 = CLOSED_SHELL ( 'NONE', ( #249, #158, #144, #235, #347, #2, #284, #126, #141, #197, #7, #330 ) ) ;
#394 = EDGE_CURVE ( 'NONE', #367, #210, #243, .T. ) ;
#395 = PLANE ( 'NONE',  #189 ) ;
#396 = FACE_OUTER_BOUND ( 'NONE', #229, .T. ) ;
#397 = ORIENTED_EDGE ( 'NONE', *, *, #326, .T. ) ;
#398 = EDGE_CURVE ( 'NONE', #291, #306, #302, .T. ) ;
#399 = CARTESIAN_POINT ( 'NONE',  ( 61.00000000000000000, 101.0000000000000000, -150.0000000000000000 ) ) ;
#400 = ADVANCED_BREP_SHAPE_REPRESENTATION ( '6163041', ( #106, #20 ), #69 ) ;
ENDSEC;
END-ISO-10303-21;
