ISO-10303-21;
HEADER;
FILE_DESCRIPTION (( 'STEP AP214' ),
    '1' );
FILE_NAME ('5015804.stp',
    '2017-06-14T08:10:03',
    ( '' ),
    ( '' ),
    'SwSTEP 2.0',
    'SolidWorks 2016',
    '' );
FILE_SCHEMA (( 'AUTOMOTIVE_DESIGN' ));
ENDSEC;

DATA;
#1 = ORIENTED_EDGE ( 'NONE', *, *, #187, .F. ) ;
#2 = CARTESIAN_POINT ( 'NONE',  ( 5.000000000000000000, 5.000000000000000000, 215.0000000000000000 ) ) ;
#3 = EDGE_CURVE ( 'NONE', #15, #34, #174, .T. ) ;
#4 = ORIENTED_EDGE ( 'NONE', *, *, #188, .T. ) ;
#5 = ORIENTED_EDGE ( 'NONE', *, *, #9, .F. ) ;
#6 = ADVANCED_FACE ( 'NONE', ( #31 ), #53, .T. ) ;
#7 = PRESENTATION_STYLE_ASSIGNMENT (( #81 ) ) ;
#8 = LINE ( 'NONE', #103, #186 ) ;
#9 = EDGE_CURVE ( 'NONE', #25, #96, #175, .T. ) ;
#10 = ORIENTED_EDGE ( 'NONE', *, *, #3, .F. ) ;
#11 = VECTOR ( 'NONE', #19, 1000.000000000000000 ) ;
#12 = PRODUCT_RELATED_PRODUCT_CATEGORY ( 'part', '', ( #171 ) ) ;
#13 = ORIENTED_EDGE ( 'NONE', *, *, #187, .T. ) ;
#14 = ORIENTED_EDGE ( 'NONE', *, *, #154, .T. ) ;
#15 = VERTEX_POINT ( 'NONE', #48 ) ;
#16 = CARTESIAN_POINT ( 'NONE',  ( -5.000000000000000000, 5.000000000000000000, 215.0000000000000000 ) ) ;
#17 = CARTESIAN_POINT ( 'NONE',  ( -5.000000000000000000, 5.000000000000000000, 215.0000000000000000 ) ) ;
#18 = CARTESIAN_POINT ( 'NONE',  ( -5.000000000000000000, -5.000000000000000000, 215.0000000000000000 ) ) ;
#19 = DIRECTION ( 'NONE',  ( -0.0000000000000000000, -0.0000000000000000000, -1.000000000000000000 ) ) ;
#20 = DIRECTION ( 'NONE',  ( -0.0000000000000000000, -0.0000000000000000000, -1.000000000000000000 ) ) ;
#21 = CARTESIAN_POINT ( 'NONE',  ( -5.000000000000000000, 5.000000000000000000, -215.0000000000000000 ) ) ;
#22 = ORIENTED_EDGE ( 'NONE', *, *, #178, .F. ) ;
#23 = ORIENTED_EDGE ( 'NONE', *, *, #88, .F. ) ;
#24 = ORIENTED_EDGE ( 'NONE', *, *, #9, .T. ) ;
#25 = VERTEX_POINT ( 'NONE', #50 ) ;
#26 = DIRECTION ( 'NONE',  ( -1.000000000000000000, -0.0000000000000000000, -0.0000000000000000000 ) ) ;
#27 = UNCERTAINTY_MEASURE_WITH_UNIT (LENGTH_MEASURE( 1.000000000000000100E-005 ), #122, 'distance_accuracy_value', 'NONE');
#28 = EDGE_CURVE ( 'NONE', #35, #159, #192, .T. ) ;
#29 = PRESENTATION_STYLE_ASSIGNMENT (( #121 ) ) ;
#30 = ORIENTED_EDGE ( 'NONE', *, *, #188, .F. ) ;
#31 = FACE_OUTER_BOUND ( 'NONE', #183, .T. ) ;
#32 = FACE_OUTER_BOUND ( 'NONE', #173, .T. ) ;
#33 = VECTOR ( 'NONE', #20, 1000.000000000000000 ) ;
#34 = VERTEX_POINT ( 'NONE', #57 ) ;
#35 = VERTEX_POINT ( 'NONE', #17 ) ;
#36 = LINE ( 'NONE', #72, #139 ) ;
#37 = ORIENTED_EDGE ( 'NONE', *, *, #135, .F. ) ;
#38 = ORIENTED_EDGE ( 'NONE', *, *, #167, .F. ) ;
#39 = ORIENTED_EDGE ( 'NONE', *, *, #154, .F. ) ;
#40 = ORIENTED_EDGE ( 'NONE', *, *, #88, .T. ) ;
#41 = ORIENTED_EDGE ( 'NONE', *, *, #178, .T. ) ;
#42 = ORIENTED_EDGE ( 'NONE', *, *, #135, .T. ) ;
#43 = COLOUR_RGB ( '',0.7529411764705882200, 0.7529411764705882200, 0.7529411764705882200 ) ;
#44 = SHAPE_DEFINITION_REPRESENTATION ( #109, #131 ) ;
#45 = PRODUCT_DEFINITION_FORMATION_WITH_SPECIFIED_SOURCE ( 'ANY', '', #171, .NOT_KNOWN. ) ;
#46 = DIRECTION ( 'NONE',  ( 0.0000000000000000000, 0.0000000000000000000, -1.000000000000000000 ) ) ;
#47 = FACE_OUTER_BOUND ( 'NONE', #190, .T. ) ;
#48 = CARTESIAN_POINT ( 'NONE',  ( 5.000000000000000000, -5.000000000000000000, 215.0000000000000000 ) ) ;
#49 = CARTESIAN_POINT ( 'NONE',  ( 5.000000000000000000, -5.000000000000000000, 215.0000000000000000 ) ) ;
#50 = CARTESIAN_POINT ( 'NONE',  ( -5.000000000000000000, -5.000000000000000000, 215.0000000000000000 ) ) ;
#51 = SURFACE_STYLE_FILL_AREA ( #118 ) ;
#52 = DIRECTION ( 'NONE',  ( -0.0000000000000000000, -0.0000000000000000000, -1.000000000000000000 ) ) ;
#53 = PLANE ( 'NONE',  #133 ) ;
#54 = CARTESIAN_POINT ( 'NONE',  ( 0.0000000000000000000, 0.0000000000000000000, -215.0000000000000000 ) ) ;
#55 = SURFACE_STYLE_FILL_AREA ( #79 ) ;
#56 = FACE_OUTER_BOUND ( 'NONE', #182, .T. ) ;
#57 = CARTESIAN_POINT ( 'NONE',  ( 5.000000000000000000, -5.000000000000000000, -215.0000000000000000 ) ) ;
#58 = AXIS2_PLACEMENT_3D ( 'NONE', #74, #87, #89 ) ;
#59 = PRESENTATION_LAYER_ASSIGNMENT (  '', '', ( #144 ) ) ;
#60 = DIRECTION ( 'NONE',  ( 0.0000000000000000000, 0.0000000000000000000, -1.000000000000000000 ) ) ;
#61 = DIRECTION ( 'NONE',  ( -1.000000000000000000, 0.0000000000000000000, -0.0000000000000000000 ) ) ;
#62 = DIRECTION ( 'NONE',  ( -0.0000000000000000000, -0.0000000000000000000, -1.000000000000000000 ) ) ;
#63 =( GEOMETRIC_REPRESENTATION_CONTEXT ( 3 ) GLOBAL_UNCERTAINTY_ASSIGNED_CONTEXT ( ( #164 ) ) GLOBAL_UNIT_ASSIGNED_CONTEXT ( ( #82, #83, #84 ) ) REPRESENTATION_CONTEXT ( 'NONE', 'WORKASPACE' ) );
#64 = PLANE ( 'NONE',  #78 ) ;
#65 = CARTESIAN_POINT ( 'NONE',  ( 5.000000000000000000, 5.000000000000000000, 215.0000000000000000 ) ) ;
#66 = COLOUR_RGB ( '',0.7529411764705882200, 0.7529411764705882200, 0.7529411764705882200 ) ;
#67 = CARTESIAN_POINT ( 'NONE',  ( 5.000000000000000000, -5.000000000000000000, 215.0000000000000000 ) ) ;
#68 = DIRECTION ( 'NONE',  ( -1.000000000000000000, 0.0000000000000000000, 0.0000000000000000000 ) ) ;
#69 = CARTESIAN_POINT ( 'NONE',  ( -5.000000000000000000, 5.000000000000000000, -215.0000000000000000 ) ) ;
#70 = CARTESIAN_POINT ( 'NONE',  ( -5.000000000000000000, -5.000000000000000000, -215.0000000000000000 ) ) ;
#71 = ORIENTED_EDGE ( 'NONE', *, *, #184, .T. ) ;
#72 = CARTESIAN_POINT ( 'NONE',  ( -5.000000000000000000, -5.000000000000000000, 215.0000000000000000 ) ) ;
#73 = DIRECTION ( 'NONE',  ( 1.000000000000000000, 0.0000000000000000000, 0.0000000000000000000 ) ) ;
#74 = CARTESIAN_POINT ( 'NONE',  ( -5.000000000000000000, 5.000000000000000000, 215.0000000000000000 ) ) ;
#75 = FILL_AREA_STYLE_COLOUR ( '', #43 ) ;
#76 = DIRECTION ( 'NONE',  ( -0.0000000000000000000, -1.000000000000000000, -0.0000000000000000000 ) ) ;
#77 = CARTESIAN_POINT ( 'NONE',  ( -5.000000000000000000, -5.000000000000000000, 215.0000000000000000 ) ) ;
#78 = AXIS2_PLACEMENT_3D ( 'NONE', #67, #68, #140 ) ;
#79 = FILL_AREA_STYLE ('',( #75 ) ) ;
#80 = SURFACE_SIDE_STYLE ('',( #55 ) ) ;
#81 = SURFACE_STYLE_USAGE ( .BOTH. , #80 ) ;
#82 =( LENGTH_UNIT ( ) NAMED_UNIT ( * ) SI_UNIT ( .MILLI., .METRE. ) );
#83 =( NAMED_UNIT ( * ) PLANE_ANGLE_UNIT ( ) SI_UNIT ( $, .RADIAN. ) );
#84 =( NAMED_UNIT ( * ) SI_UNIT ( $, .STERADIAN. ) SOLID_ANGLE_UNIT ( ) );
#85 = ORIENTED_EDGE ( 'NONE', *, *, #184, .F. ) ;
#86 = PLANE ( 'NONE',  #58 ) ;
#87 = DIRECTION ( 'NONE',  ( 0.0000000000000000000, -1.000000000000000000, 0.0000000000000000000 ) ) ;
#88 = EDGE_CURVE ( 'NONE', #150, #159, #176, .T. ) ;
#89 = DIRECTION ( 'NONE',  ( 0.0000000000000000000, -0.0000000000000000000, -1.000000000000000000 ) ) ;
#90 = PLANE ( 'NONE',  #199 ) ;
#91 = PLANE ( 'NONE',  #147 ) ;
#92 = CARTESIAN_POINT ( 'NONE',  ( 5.000000000000000000, -5.000000000000000000, 215.0000000000000000 ) ) ;
#93 = DIRECTION ( 'NONE',  ( 0.0000000000000000000, 1.000000000000000000, 0.0000000000000000000 ) ) ;
#94 = CARTESIAN_POINT ( 'NONE',  ( -5.000000000000000000, -5.000000000000000000, 215.0000000000000000 ) ) ;
#95 = DIRECTION ( 'NONE',  ( 1.000000000000000000, 0.0000000000000000000, 0.0000000000000000000 ) ) ;
#96 = VERTEX_POINT ( 'NONE', #70 ) ;
#97 = DIRECTION ( 'NONE',  ( 0.0000000000000000000, 0.0000000000000000000, -1.000000000000000000 ) ) ;
#98 = CARTESIAN_POINT ( 'NONE',  ( -5.000000000000000000, -5.000000000000000000, -215.0000000000000000 ) ) ;
#99 = DIRECTION ( 'NONE',  ( 0.0000000000000000000, 1.000000000000000000, 0.0000000000000000000 ) ) ;
#100 = DIRECTION ( 'NONE',  ( 0.0000000000000000000, -0.0000000000000000000, 1.000000000000000000 ) ) ;
#101 = ADVANCED_FACE ( 'NONE', ( #32 ), #148, .F. ) ;
#102 = CARTESIAN_POINT ( 'NONE',  ( 0.0000000000000000000, 0.0000000000000000000, 0.0000000000000000000 ) ) ;
#103 = CARTESIAN_POINT ( 'NONE',  ( -5.000000000000000000, -5.000000000000000000, -215.0000000000000000 ) ) ;
#104 = CARTESIAN_POINT ( 'NONE',  ( 5.000000000000000000, 5.000000000000000000, -215.0000000000000000 ) ) ;
#105 = DIRECTION ( 'NONE',  ( -0.0000000000000000000, -1.000000000000000000, -0.0000000000000000000 ) ) ;
#106 = ORIENTED_EDGE ( 'NONE', *, *, #167, .T. ) ;
#107 = DIRECTION ( 'NONE',  ( 1.000000000000000000, 0.0000000000000000000, 0.0000000000000000000 ) ) ;
#108 = CARTESIAN_POINT ( 'NONE',  ( -5.000000000000000000, 5.000000000000000000, 215.0000000000000000 ) ) ;
#109 = PRODUCT_DEFINITION_SHAPE ( 'NONE', 'NONE',  #197 ) ;
#110 = DIRECTION ( 'NONE',  ( -1.000000000000000000, -0.0000000000000000000, -0.0000000000000000000 ) ) ;
#111 = FILL_AREA_STYLE_COLOUR ( '', #66 ) ;
#112 =( LENGTH_UNIT ( ) NAMED_UNIT ( * ) SI_UNIT ( .MILLI., .METRE. ) );
#113 =( NAMED_UNIT ( * ) PLANE_ANGLE_UNIT ( ) SI_UNIT ( $, .RADIAN. ) );
#114 =( NAMED_UNIT ( * ) SI_UNIT ( $, .STERADIAN. ) SOLID_ANGLE_UNIT ( ) );
#115 = APPLICATION_PROTOCOL_DEFINITION ( 'draft international standard', 'automotive_design', 1998, #116 ) ;
#116 = APPLICATION_CONTEXT ( 'automotive_design' ) ;
#117 = VECTOR ( 'NONE', #110, 1000.000000000000000 ) ;
#118 = FILL_AREA_STYLE ('',( #111 ) ) ;
#119 = ORIENTED_EDGE ( 'NONE', *, *, #3, .T. ) ;
#120 = SURFACE_SIDE_STYLE ('',( #51 ) ) ;
#121 = SURFACE_STYLE_USAGE ( .BOTH. , #120 ) ;
#122 =( LENGTH_UNIT ( ) NAMED_UNIT ( * ) SI_UNIT ( .MILLI., .METRE. ) );
#123 =( NAMED_UNIT ( * ) PLANE_ANGLE_UNIT ( ) SI_UNIT ( $, .RADIAN. ) );
#124 =( NAMED_UNIT ( * ) SI_UNIT ( $, .STERADIAN. ) SOLID_ANGLE_UNIT ( ) );
#125 = DIRECTION ( 'NONE',  ( 0.0000000000000000000, 0.0000000000000000000, 1.000000000000000000 ) ) ;
#126 = DIRECTION ( 'NONE',  ( 1.000000000000000000, 0.0000000000000000000, 0.0000000000000000000 ) ) ;
#127 = PRODUCT_CONTEXT ( 'NONE', #116, 'mechanical' ) ;
#128 = APPLICATION_CONTEXT ( 'automotive_design' ) ;
#129 = APPLICATION_PROTOCOL_DEFINITION ( 'draft international standard', 'automotive_design', 1998, #128 ) ;
#130 = MECHANICAL_DESIGN_GEOMETRIC_PRESENTATION_REPRESENTATION (  '', ( #136 ), #161 ) ;
#131 = ADVANCED_BREP_SHAPE_REPRESENTATION ( '5015804', ( #170, #193 ), #156 ) ;
#132 = VECTOR ( 'NONE', #52, 1000.000000000000000 ) ;
#133 = AXIS2_PLACEMENT_3D ( 'NONE', #54, #46, #158 ) ;
#134 = ORIENTED_EDGE ( 'NONE', *, *, #200, .F. ) ;
#135 = EDGE_CURVE ( 'NONE', #152, #150, #202, .T. ) ;
#136 = STYLED_ITEM ( 'NONE', ( #29 ), #131 ) ;
#137 = CARTESIAN_POINT ( 'NONE',  ( -5.000000000000000000, -5.000000000000000000, 215.0000000000000000 ) ) ;
#138 = LINE ( 'NONE', #108, #117 ) ;
#139 = VECTOR ( 'NONE', #73, 1000.000000000000000 ) ;
#140 = DIRECTION ( 'NONE',  ( 0.0000000000000000000, 0.0000000000000000000, 1.000000000000000000 ) ) ;
#141 = FACE_OUTER_BOUND ( 'NONE', #168, .T. ) ;
#142 = AXIS2_PLACEMENT_3D ( 'NONE', #162, #60, #61 ) ;
#143 = LINE ( 'NONE', #92, #149 ) ;
#144 = STYLED_ITEM ( 'NONE', ( #7 ), #170 ) ;
#145 = LINE ( 'NONE', #185, #194 ) ;
#146 = ORIENTED_EDGE ( 'NONE', *, *, #200, .T. ) ;
#147 = AXIS2_PLACEMENT_3D ( 'NONE', #77, #95, #97 ) ;
#148 = PLANE ( 'NONE',  #142 ) ;
#149 = VECTOR ( 'NONE', #93, 1000.000000000000000 ) ;
#150 = VERTEX_POINT ( 'NONE', #104 ) ;
#151 = EDGE_LOOP ( 'NONE', ( #146, #37, #22, #119 ) ) ;
#152 = VERTEX_POINT ( 'NONE', #65 ) ;
#153 = ADVANCED_FACE ( 'NONE', ( #196 ), #64, .F. ) ;
#154 = EDGE_CURVE ( 'NONE', #25, #15, #36, .T. ) ;
#155 = CLOSED_SHELL ( 'NONE', ( #153, #177, #179, #180, #101, #6 ) ) ;
#156 =( GEOMETRIC_REPRESENTATION_CONTEXT ( 3 ) GLOBAL_UNCERTAINTY_ASSIGNED_CONTEXT ( ( #166 ) ) GLOBAL_UNIT_ASSIGNED_CONTEXT ( ( #112, #113, #114 ) ) REPRESENTATION_CONTEXT ( 'NONE', 'WORKASPACE' ) );
#157 = VECTOR ( 'NONE', #62, 1000.000000000000000 ) ;
#158 = DIRECTION ( 'NONE',  ( -1.000000000000000000, 0.0000000000000000000, -0.0000000000000000000 ) ) ;
#159 = VERTEX_POINT ( 'NONE', #69 ) ;
#160 = DIRECTION ( 'NONE',  ( 0.0000000000000000000, 1.000000000000000000, 0.0000000000000000000 ) ) ;
#161 =( GEOMETRIC_REPRESENTATION_CONTEXT ( 3 ) GLOBAL_UNCERTAINTY_ASSIGNED_CONTEXT ( ( #27 ) ) GLOBAL_UNIT_ASSIGNED_CONTEXT ( ( #122, #123, #124 ) ) REPRESENTATION_CONTEXT ( 'NONE', 'WORKASPACE' ) );
#162 = CARTESIAN_POINT ( 'NONE',  ( 0.0000000000000000000, 0.0000000000000000000, 215.0000000000000000 ) ) ;
#163 = ORIENTED_EDGE ( 'NONE', *, *, #28, .T. ) ;
#164 = UNCERTAINTY_MEASURE_WITH_UNIT (LENGTH_MEASURE( 1.000000000000000100E-005 ), #82, 'distance_accuracy_value', 'NONE');
#165 = MECHANICAL_DESIGN_GEOMETRIC_PRESENTATION_REPRESENTATION (  '', ( #144 ), #63 ) ;
#166 = UNCERTAINTY_MEASURE_WITH_UNIT (LENGTH_MEASURE( 1.000000000000000100E-005 ), #112, 'distance_accuracy_value', 'NONE');
#167 = EDGE_CURVE ( 'NONE', #35, #25, #195, .T. ) ;
#168 = EDGE_LOOP ( 'NONE', ( #71, #5, #38, #163 ) ) ;
#169 = LINE ( 'NONE', #98, #172 ) ;
#170 = MANIFOLD_SOLID_BREP ( 'Boss-Extrude1', #155 ) ;
#171 = PRODUCT ( '5015804', '5015804', '', ( #127 ) ) ;
#172 = VECTOR ( 'NONE', #107, 1000.000000000000000 ) ;
#173 = EDGE_LOOP ( 'NONE', ( #41, #4, #106, #14 ) ) ;
#174 = LINE ( 'NONE', #49, #132 ) ;
#175 = LINE ( 'NONE', #18, #11 ) ;
#176 = LINE ( 'NONE', #21, #181 ) ;
#177 = ADVANCED_FACE ( 'NONE', ( #47 ), #86, .F. ) ;
#178 = EDGE_CURVE ( 'NONE', #15, #152, #143, .T. ) ;
#179 = ADVANCED_FACE ( 'NONE', ( #141 ), #91, .F. ) ;
#180 = ADVANCED_FACE ( 'NONE', ( #56 ), #90, .F. ) ;
#181 = VECTOR ( 'NONE', #26, 1000.000000000000000 ) ;
#182 = EDGE_LOOP ( 'NONE', ( #13, #10, #39, #24 ) ) ;
#183 = EDGE_LOOP ( 'NONE', ( #134, #1, #85, #23 ) ) ;
#184 = EDGE_CURVE ( 'NONE', #159, #96, #8, .T. ) ;
#185 = CARTESIAN_POINT ( 'NONE',  ( 5.000000000000000000, -5.000000000000000000, -215.0000000000000000 ) ) ;
#186 = VECTOR ( 'NONE', #105, 1000.000000000000000 ) ;
#187 = EDGE_CURVE ( 'NONE', #96, #34, #169, .T. ) ;
#188 = EDGE_CURVE ( 'NONE', #152, #35, #138, .T. ) ;
#189 = PRODUCT_DEFINITION_CONTEXT ( 'detailed design', #128, 'design' ) ;
#190 = EDGE_LOOP ( 'NONE', ( #40, #201, #30, #42 ) ) ;
#191 = PRESENTATION_LAYER_ASSIGNMENT (  '', '', ( #136 ) ) ;
#192 = LINE ( 'NONE', #16, #33 ) ;
#193 = AXIS2_PLACEMENT_3D ( 'NONE', #102, #125, #126 ) ;
#194 = VECTOR ( 'NONE', #160, 1000.000000000000000 ) ;
#195 = LINE ( 'NONE', #137, #198 ) ;
#196 = FACE_OUTER_BOUND ( 'NONE', #151, .T. ) ;
#197 = PRODUCT_DEFINITION ( 'UNKNOWN', '', #45, #189 ) ;
#198 = VECTOR ( 'NONE', #76, 1000.000000000000000 ) ;
#199 = AXIS2_PLACEMENT_3D ( 'NONE', #94, #99, #100 ) ;
#200 = EDGE_CURVE ( 'NONE', #34, #150, #145, .T. ) ;
#201 = ORIENTED_EDGE ( 'NONE', *, *, #28, .F. ) ;
#202 = LINE ( 'NONE', #2, #157 ) ;
ENDSEC;
END-ISO-10303-21;
