ISO-10303-21;
HEADER;
FILE_DESCRIPTION (( 'STEP AP214' ),
    '1' );
FILE_NAME ('3404102.stp',
    '2021-01-04T11:46:35',
    ( '' ),
    ( '' ),
    'SwSTEP 2.0',
    'SolidWorks 2020',
    '' );
FILE_SCHEMA (( 'AUTOMOTIVE_DESIGN' ));
ENDSEC;

DATA;
#1 =( NAMED_UNIT ( * ) SI_UNIT ( $, .STERADIAN. ) SOLID_ANGLE_UNIT ( ) );
#2 = LINE ( 'NONE', #71, #13 ) ;
#3 = FACE_OUTER_BOUND ( 'NONE', #207, .T. ) ;
#4 = CLOSED_SHELL ( 'NONE', ( #188, #126, #21, #176, #50, #141 ) ) ;
#5 = PRODUCT_RELATED_PRODUCT_CATEGORY ( 'part', '', ( #46 ) ) ;
#6 = ORIENTED_EDGE ( 'NONE', *, *, #139, .T. ) ;
#7 = ADVANCED_BREP_SHAPE_REPRESENTATION ( '3404102', ( #123, #61 ), #187 ) ;
#8 = DIRECTION ( 'NONE',  ( 1.000000000000000000, 0.0000000000000000000, 0.0000000000000000000 ) ) ;
#9 = CYLINDRICAL_SURFACE ( 'NONE', #210, 5.250000000000000000 ) ;
#10 = PRESENTATION_LAYER_ASSIGNMENT (  '', '', ( #109 ) ) ;
#11 = VERTEX_POINT ( 'NONE', #202 ) ;
#12 = ORIENTED_EDGE ( 'NONE', *, *, #31, .F. ) ;
#13 = VECTOR ( 'NONE', #175, 1000.000000000000000 ) ;
#14 = ORIENTED_EDGE ( 'NONE', *, *, #139, .F. ) ;
#15 = CIRCLE ( 'NONE', #54, 9.000000000000000000 ) ;
#16 = EDGE_CURVE ( 'NONE', #151, #24, #102, .T. ) ;
#17 = DIRECTION ( 'NONE',  ( 1.000000000000000000, 0.0000000000000000000, 0.0000000000000000000 ) ) ;
#18 = DIRECTION ( 'NONE',  ( 0.0000000000000000000, 0.0000000000000000000, -1.000000000000000000 ) ) ;
#19 = CYLINDRICAL_SURFACE ( 'NONE', #73, 9.000000000000000000 ) ;
#20 = DIRECTION ( 'NONE',  ( 1.000000000000000000, 0.0000000000000000000, 0.0000000000000000000 ) ) ;
#21 = ADVANCED_FACE ( 'NONE', ( #60, #42 ), #68, .T. ) ;
#22 = ORIENTED_EDGE ( 'NONE', *, *, #212, .T. ) ;
#23 = APPLICATION_CONTEXT ( 'automotive_design' ) ;
#24 = VERTEX_POINT ( 'NONE', #56 ) ;
#25 = PLANE ( 'NONE',  #95 ) ;
#26 = DIRECTION ( 'NONE',  ( 0.0000000000000000000, 0.0000000000000000000, -1.000000000000000000 ) ) ;
#27 = CYLINDRICAL_SURFACE ( 'NONE', #125, 5.250000000000000000 ) ;
#28 = ORIENTED_EDGE ( 'NONE', *, *, #88, .F. ) ;
#29 = ORIENTED_EDGE ( 'NONE', *, *, #85, .T. ) ;
#30 = CARTESIAN_POINT ( 'NONE',  ( 0.9000000000000000222, 6.429395695523604153E-16, -5.250000000000000000 ) ) ;
#31 = EDGE_CURVE ( 'NONE', #11, #43, #111, .T. ) ;
#32 = ORIENTED_EDGE ( 'NONE', *, *, #112, .F. ) ;
#33 = CIRCLE ( 'NONE', #197, 5.250000000000000000 ) ;
#34 = SURFACE_STYLE_USAGE ( .BOTH. , #107 ) ;
#35 = FILL_AREA_STYLE ('',( #189 ) ) ;
#36 = AXIS2_PLACEMENT_3D ( 'NONE', #120, #100, #211 ) ;
#37 = CARTESIAN_POINT ( 'NONE',  ( 0.9000000000000000222, 0.0000000000000000000, 0.0000000000000000000 ) ) ;
#38 = CARTESIAN_POINT ( 'NONE',  ( 0.9000000000000000222, 0.0000000000000000000, 0.0000000000000000000 ) ) ;
#39 = DIRECTION ( 'NONE',  ( 0.0000000000000000000, 0.0000000000000000000, -1.000000000000000000 ) ) ;
#40 = DIRECTION ( 'NONE',  ( 1.000000000000000000, 0.0000000000000000000, 0.0000000000000000000 ) ) ;
#41 =( GEOMETRIC_REPRESENTATION_CONTEXT ( 3 ) GLOBAL_UNCERTAINTY_ASSIGNED_CONTEXT ( ( #185 ) ) GLOBAL_UNIT_ASSIGNED_CONTEXT ( ( #104, #55, #1 ) ) REPRESENTATION_CONTEXT ( 'NONE', 'WORKASPACE' ) );
#42 = FACE_BOUND ( 'NONE', #192, .T. ) ;
#43 = VERTEX_POINT ( 'NONE', #161 ) ;
#44 = CARTESIAN_POINT ( 'NONE',  ( 0.0000000000000000000, 0.0000000000000000000, 0.0000000000000000000 ) ) ;
#45 = CARTESIAN_POINT ( 'NONE',  ( 0.0000000000000000000, 0.0000000000000000000, 0.0000000000000000000 ) ) ;
#46 = PRODUCT ( '3404102', '3404102', '', ( #204 ) ) ;
#47 = CIRCLE ( 'NONE', #121, 9.000000000000000000 ) ;
#48 = DIRECTION ( 'NONE',  ( 0.0000000000000000000, 0.0000000000000000000, -1.000000000000000000 ) ) ;
#49 = EDGE_LOOP ( 'NONE', ( #132, #200, #166, #14 ) ) ;
#50 = ADVANCED_FACE ( 'NONE', ( #3 ), #145, .T. ) ;
#51 = DIRECTION ( 'NONE',  ( 0.0000000000000000000, 0.0000000000000000000, 1.000000000000000000 ) ) ;
#52 = UNCERTAINTY_MEASURE_WITH_UNIT (LENGTH_MEASURE( 1.000000000000000082E-05 ), #190, 'distance_accuracy_value', 'NONE');
#53 = ORIENTED_EDGE ( 'NONE', *, *, #134, .T. ) ;
#54 = AXIS2_PLACEMENT_3D ( 'NONE', #37, #40, #39 ) ;
#55 =( NAMED_UNIT ( * ) PLANE_ANGLE_UNIT ( ) SI_UNIT ( $, .RADIAN. ) );
#56 = CARTESIAN_POINT ( 'NONE',  ( 0.0000000000000000000, 0.0000000000000000000, 5.250000000000000000 ) ) ;
#57 = CIRCLE ( 'NONE', #194, 9.000000000000000000 ) ;
#58 = LINE ( 'NONE', #59, #182 ) ;
#59 = CARTESIAN_POINT ( 'NONE',  ( 0.9000000000000000222, 1.102182119232617714E-15, -9.000000000000000000 ) ) ;
#60 = FACE_OUTER_BOUND ( 'NONE', #82, .T. ) ;
#61 = AXIS2_PLACEMENT_3D ( 'NONE', #106, #136, #69 ) ;
#62 = APPLICATION_PROTOCOL_DEFINITION ( 'draft international standard', 'automotive_design', 1998, #172 ) ;
#63 = AXIS2_PLACEMENT_3D ( 'NONE', #191, #162, #89 ) ;
#64 = CARTESIAN_POINT ( 'NONE',  ( 0.9000000000000000222, 0.0000000000000000000, 0.0000000000000000000 ) ) ;
#65 = CARTESIAN_POINT ( 'NONE',  ( 0.9000000000000000222, 6.429395695523604153E-16, -5.250000000000000000 ) ) ;
#66 = FACE_OUTER_BOUND ( 'NONE', #146, .T. ) ;
#67 = ORIENTED_EDGE ( 'NONE', *, *, #212, .F. ) ;
#68 = PLANE ( 'NONE',  #137 ) ;
#69 = DIRECTION ( 'NONE',  ( 1.000000000000000000, 0.0000000000000000000, 0.0000000000000000000 ) ) ;
#70 = PRODUCT_DEFINITION ( 'UNKNOWN', '', #127, #98 ) ;
#71 = CARTESIAN_POINT ( 'NONE',  ( 0.9000000000000000222, 0.0000000000000000000, 9.000000000000000000 ) ) ;
#72 = DIRECTION ( 'NONE',  ( 0.0000000000000000000, 0.0000000000000000000, -1.000000000000000000 ) ) ;
#73 = AXIS2_PLACEMENT_3D ( 'NONE', #115, #131, #116 ) ;
#74 = DIRECTION ( 'NONE',  ( 0.0000000000000000000, 0.0000000000000000000, -1.000000000000000000 ) ) ;
#75 = EDGE_LOOP ( 'NONE', ( #32, #174, #29, #92 ) ) ;
#76 = CARTESIAN_POINT ( 'NONE',  ( 0.9000000000000000222, 0.0000000000000000000, 5.250000000000000000 ) ) ;
#77 = LINE ( 'NONE', #30, #163 ) ;
#78 = VERTEX_POINT ( 'NONE', #142 ) ;
#79 = DIRECTION ( 'NONE',  ( 1.000000000000000000, 0.0000000000000000000, 0.0000000000000000000 ) ) ;
#80 = EDGE_CURVE ( 'NONE', #154, #151, #81, .T. ) ;
#81 = CIRCLE ( 'NONE', #147, 5.250000000000000000 ) ;
#82 = EDGE_LOOP ( 'NONE', ( #171, #91 ) ) ;
#83 = CARTESIAN_POINT ( 'NONE',  ( 0.9000000000000000222, 0.0000000000000000000, 9.000000000000000000 ) ) ;
#84 = DIRECTION ( 'NONE',  ( -1.000000000000000000, -0.0000000000000000000, -0.0000000000000000000 ) ) ;
#85 = EDGE_CURVE ( 'NONE', #43, #11, #47, .T. ) ;
#86 = AXIS2_PLACEMENT_3D ( 'NONE', #44, #183, #213 ) ;
#87 = SHAPE_DEFINITION_REPRESENTATION ( #157, #7 ) ;
#88 = EDGE_CURVE ( 'NONE', #155, #43, #58, .T. ) ;
#89 = DIRECTION ( 'NONE',  ( 0.0000000000000000000, 0.0000000000000000000, -1.000000000000000000 ) ) ;
#90 = DIRECTION ( 'NONE',  ( 1.000000000000000000, 0.0000000000000000000, 0.0000000000000000000 ) ) ;
#91 = ORIENTED_EDGE ( 'NONE', *, *, #112, .T. ) ;
#92 = ORIENTED_EDGE ( 'NONE', *, *, #103, .F. ) ;
#93 = SURFACE_STYLE_FILL_AREA ( #35 ) ;
#94 = DIRECTION ( 'NONE',  ( -1.000000000000000000, -0.0000000000000000000, -0.0000000000000000000 ) ) ;
#95 = AXIS2_PLACEMENT_3D ( 'NONE', #45, #79, #181 ) ;
#96 = FILL_AREA_STYLE_COLOUR ( '', #152 ) ;
#97 = ORIENTED_EDGE ( 'NONE', *, *, #203, .T. ) ;
#98 = PRODUCT_DEFINITION_CONTEXT ( 'detailed design', #23, 'design' ) ;
#99 = CARTESIAN_POINT ( 'NONE',  ( 0.9000000000000000222, 0.0000000000000000000, 5.250000000000000000 ) ) ;
#100 = DIRECTION ( 'NONE',  ( 1.000000000000000000, 0.0000000000000000000, 0.0000000000000000000 ) ) ;
#101 = ORIENTED_EDGE ( 'NONE', *, *, #103, .T. ) ;
#102 = LINE ( 'NONE', #99, #205 ) ;
#103 = EDGE_CURVE ( 'NONE', #180, #11, #2, .T. ) ;
#104 =( LENGTH_UNIT ( ) NAMED_UNIT ( * ) SI_UNIT ( .MILLI., .METRE. ) );
#105 = EDGE_CURVE ( 'NONE', #180, #155, #15, .T. ) ;
#106 = CARTESIAN_POINT ( 'NONE',  ( 0.0000000000000000000, 0.0000000000000000000, 0.0000000000000000000 ) ) ;
#107 = SURFACE_SIDE_STYLE ('',( #135 ) ) ;
#108 = SURFACE_STYLE_USAGE ( .BOTH. , #164 ) ;
#109 = STYLED_ITEM ( 'NONE', ( #138 ), #7 ) ;
#110 = CARTESIAN_POINT ( 'NONE',  ( 0.9000000000000000222, 0.0000000000000000000, 0.0000000000000000000 ) ) ;
#111 = CIRCLE ( 'NONE', #63, 9.000000000000000000 ) ;
#112 = EDGE_CURVE ( 'NONE', #155, #180, #57, .T. ) ;
#113 = DIRECTION ( 'NONE',  ( 0.0000000000000000000, 0.0000000000000000000, 1.000000000000000000 ) ) ;
#114 = CARTESIAN_POINT ( 'NONE',  ( 0.9000000000000000222, 0.0000000000000000000, 0.0000000000000000000 ) ) ;
#115 = CARTESIAN_POINT ( 'NONE',  ( 0.9000000000000000222, 0.0000000000000000000, 0.0000000000000000000 ) ) ;
#116 = DIRECTION ( 'NONE',  ( 0.0000000000000000000, 0.0000000000000000000, 1.000000000000000000 ) ) ;
#117 = AXIS2_PLACEMENT_3D ( 'NONE', #122, #208, #113 ) ;
#118 =( NAMED_UNIT ( * ) PLANE_ANGLE_UNIT ( ) SI_UNIT ( $, .RADIAN. ) );
#119 = ORIENTED_EDGE ( 'NONE', *, *, #31, .T. ) ;
#120 = CARTESIAN_POINT ( 'NONE',  ( 0.0000000000000000000, 0.0000000000000000000, 0.0000000000000000000 ) ) ;
#121 = AXIS2_PLACEMENT_3D ( 'NONE', #193, #90, #74 ) ;
#122 = CARTESIAN_POINT ( 'NONE',  ( 0.9000000000000000222, 0.0000000000000000000, 0.0000000000000000000 ) ) ;
#123 = MANIFOLD_SOLID_BREP ( 'Base-Extrude', #4 ) ;
#124 = PRESENTATION_STYLE_ASSIGNMENT (( #108 ) ) ;
#125 = AXIS2_PLACEMENT_3D ( 'NONE', #167, #94, #51 ) ;
#126 = ADVANCED_FACE ( 'NONE', ( #149 ), #19, .T. ) ;
#127 = PRODUCT_DEFINITION_FORMATION_WITH_SPECIFIED_SOURCE ( 'ANY', '', #46, .NOT_KNOWN. ) ;
#128 = FACE_OUTER_BOUND ( 'NONE', #49, .T. ) ;
#129 = ORIENTED_EDGE ( 'NONE', *, *, #16, .F. ) ;
#130 = STYLED_ITEM ( 'NONE', ( #124 ), #123 ) ;
#131 = DIRECTION ( 'NONE',  ( -1.000000000000000000, -0.0000000000000000000, -0.0000000000000000000 ) ) ;
#132 = ORIENTED_EDGE ( 'NONE', *, *, #134, .F. ) ;
#133 = DIRECTION ( 'NONE',  ( -1.000000000000000000, -0.0000000000000000000, -0.0000000000000000000 ) ) ;
#134 = EDGE_CURVE ( 'NONE', #154, #78, #77, .T. ) ;
#135 = SURFACE_STYLE_FILL_AREA ( #159 ) ;
#136 = DIRECTION ( 'NONE',  ( 0.0000000000000000000, 0.0000000000000000000, 1.000000000000000000 ) ) ;
#137 = AXIS2_PLACEMENT_3D ( 'NONE', #114, #177, #26 ) ;
#138 = PRESENTATION_STYLE_ASSIGNMENT (( #34 ) ) ;
#139 = EDGE_CURVE ( 'NONE', #78, #24, #143, .T. ) ;
#140 = PRESENTATION_LAYER_ASSIGNMENT (  '', '', ( #130 ) ) ;
#141 = ADVANCED_FACE ( 'NONE', ( #128 ), #9, .F. ) ;
#142 = CARTESIAN_POINT ( 'NONE',  ( 0.0000000000000000000, 6.429395695523604153E-16, -5.250000000000000000 ) ) ;
#143 = CIRCLE ( 'NONE', #86, 5.250000000000000000 ) ;
#144 = DIRECTION ( 'NONE',  ( -1.000000000000000000, -0.0000000000000000000, -0.0000000000000000000 ) ) ;
#145 = CYLINDRICAL_SURFACE ( 'NONE', #117, 9.000000000000000000 ) ;
#146 = EDGE_LOOP ( 'NONE', ( #97, #53, #67, #129 ) ) ;
#147 = AXIS2_PLACEMENT_3D ( 'NONE', #38, #17, #18 ) ;
#148 =( NAMED_UNIT ( * ) SI_UNIT ( $, .STERADIAN. ) SOLID_ANGLE_UNIT ( ) );
#149 = FACE_OUTER_BOUND ( 'NONE', #75, .T. ) ;
#150 = ORIENTED_EDGE ( 'NONE', *, *, #80, .F. ) ;
#151 = VERTEX_POINT ( 'NONE', #76 ) ;
#152 = COLOUR_RGB ( '',1.000000000000000000, 0.9490196078431372140, 0.9098039215686274384 ) ;
#153 =( NAMED_UNIT ( * ) PLANE_ANGLE_UNIT ( ) SI_UNIT ( $, .RADIAN. ) );
#154 = VERTEX_POINT ( 'NONE', #65 ) ;
#155 = VERTEX_POINT ( 'NONE', #169 ) ;
#156 =( NAMED_UNIT ( * ) SI_UNIT ( $, .STERADIAN. ) SOLID_ANGLE_UNIT ( ) );
#157 = PRODUCT_DEFINITION_SHAPE ( 'NONE', 'NONE',  #70 ) ;
#158 = COLOUR_RGB ( '',1.000000000000000000, 0.9490196078431372140, 0.9098039215686274384 ) ;
#159 = FILL_AREA_STYLE ('',( #96 ) ) ;
#160 = CIRCLE ( 'NONE', #36, 5.250000000000000000 ) ;
#161 = CARTESIAN_POINT ( 'NONE',  ( 0.0000000000000000000, 1.102182119232617714E-15, -9.000000000000000000 ) ) ;
#162 = DIRECTION ( 'NONE',  ( 1.000000000000000000, 0.0000000000000000000, 0.0000000000000000000 ) ) ;
#163 = VECTOR ( 'NONE', #201, 1000.000000000000000 ) ;
#164 = SURFACE_SIDE_STYLE ('',( #93 ) ) ;
#165 =( LENGTH_UNIT ( ) NAMED_UNIT ( * ) SI_UNIT ( .MILLI., .METRE. ) );
#166 = ORIENTED_EDGE ( 'NONE', *, *, #16, .T. ) ;
#167 = CARTESIAN_POINT ( 'NONE',  ( 0.9000000000000000222, 0.0000000000000000000, 0.0000000000000000000 ) ) ;
#168 = ORIENTED_EDGE ( 'NONE', *, *, #85, .F. ) ;
#169 = CARTESIAN_POINT ( 'NONE',  ( 0.9000000000000000222, 1.102182119232617714E-15, -9.000000000000000000 ) ) ;
#170 = UNCERTAINTY_MEASURE_WITH_UNIT (LENGTH_MEASURE( 1.000000000000000082E-05 ), #165, 'distance_accuracy_value', 'NONE');
#171 = ORIENTED_EDGE ( 'NONE', *, *, #105, .T. ) ;
#172 = APPLICATION_CONTEXT ( 'automotive_design' ) ;
#173 = MECHANICAL_DESIGN_GEOMETRIC_PRESENTATION_REPRESENTATION (  '', ( #130 ), #214 ) ;
#174 = ORIENTED_EDGE ( 'NONE', *, *, #88, .T. ) ;
#175 = DIRECTION ( 'NONE',  ( -1.000000000000000000, -0.0000000000000000000, -0.0000000000000000000 ) ) ;
#176 = ADVANCED_FACE ( 'NONE', ( #196, #199 ), #25, .F. ) ;
#177 = DIRECTION ( 'NONE',  ( 1.000000000000000000, 0.0000000000000000000, 0.0000000000000000000 ) ) ;
#178 = ORIENTED_EDGE ( 'NONE', *, *, #203, .F. ) ;
#179 = DIRECTION ( 'NONE',  ( 0.0000000000000000000, 0.0000000000000000000, 1.000000000000000000 ) ) ;
#180 = VERTEX_POINT ( 'NONE', #83 ) ;
#181 = DIRECTION ( 'NONE',  ( 0.0000000000000000000, 0.0000000000000000000, -1.000000000000000000 ) ) ;
#182 = VECTOR ( 'NONE', #144, 1000.000000000000000 ) ;
#183 = DIRECTION ( 'NONE',  ( 1.000000000000000000, 0.0000000000000000000, 0.0000000000000000000 ) ) ;
#184 = EDGE_LOOP ( 'NONE', ( #12, #168 ) ) ;
#185 = UNCERTAINTY_MEASURE_WITH_UNIT (LENGTH_MEASURE( 1.000000000000000082E-05 ), #104, 'distance_accuracy_value', 'NONE');
#186 = APPLICATION_PROTOCOL_DEFINITION ( 'draft international standard', 'automotive_design', 1998, #23 ) ;
#187 =( GEOMETRIC_REPRESENTATION_CONTEXT ( 3 ) GLOBAL_UNCERTAINTY_ASSIGNED_CONTEXT ( ( #170 ) ) GLOBAL_UNIT_ASSIGNED_CONTEXT ( ( #165, #153, #148 ) ) REPRESENTATION_CONTEXT ( 'NONE', 'WORKASPACE' ) );
#188 = ADVANCED_FACE ( 'NONE', ( #66 ), #27, .F. ) ;
#189 = FILL_AREA_STYLE_COLOUR ( '', #158 ) ;
#190 =( LENGTH_UNIT ( ) NAMED_UNIT ( * ) SI_UNIT ( .MILLI., .METRE. ) );
#191 = CARTESIAN_POINT ( 'NONE',  ( 0.0000000000000000000, 0.0000000000000000000, 0.0000000000000000000 ) ) ;
#192 = EDGE_LOOP ( 'NONE', ( #178, #150 ) ) ;
#193 = CARTESIAN_POINT ( 'NONE',  ( 0.0000000000000000000, 0.0000000000000000000, 0.0000000000000000000 ) ) ;
#194 = AXIS2_PLACEMENT_3D ( 'NONE', #110, #8, #72 ) ;
#195 = CARTESIAN_POINT ( 'NONE',  ( 0.9000000000000000222, 0.0000000000000000000, 0.0000000000000000000 ) ) ;
#196 = FACE_OUTER_BOUND ( 'NONE', #184, .T. ) ;
#197 = AXIS2_PLACEMENT_3D ( 'NONE', #195, #20, #48 ) ;
#198 = EDGE_LOOP ( 'NONE', ( #22, #6 ) ) ;
#199 = FACE_BOUND ( 'NONE', #198, .T. ) ;
#200 = ORIENTED_EDGE ( 'NONE', *, *, #80, .T. ) ;
#201 = DIRECTION ( 'NONE',  ( -1.000000000000000000, -0.0000000000000000000, -0.0000000000000000000 ) ) ;
#202 = CARTESIAN_POINT ( 'NONE',  ( 0.0000000000000000000, 0.0000000000000000000, 9.000000000000000000 ) ) ;
#203 = EDGE_CURVE ( 'NONE', #151, #154, #33, .T. ) ;
#204 = PRODUCT_CONTEXT ( 'NONE', #172, 'mechanical' ) ;
#205 = VECTOR ( 'NONE', #84, 1000.000000000000000 ) ;
#206 = MECHANICAL_DESIGN_GEOMETRIC_PRESENTATION_REPRESENTATION (  '', ( #109 ), #41 ) ;
#207 = EDGE_LOOP ( 'NONE', ( #28, #209, #101, #119 ) ) ;
#208 = DIRECTION ( 'NONE',  ( -1.000000000000000000, -0.0000000000000000000, -0.0000000000000000000 ) ) ;
#209 = ORIENTED_EDGE ( 'NONE', *, *, #105, .F. ) ;
#210 = AXIS2_PLACEMENT_3D ( 'NONE', #64, #133, #179 ) ;
#211 = DIRECTION ( 'NONE',  ( 0.0000000000000000000, 0.0000000000000000000, -1.000000000000000000 ) ) ;
#212 = EDGE_CURVE ( 'NONE', #24, #78, #160, .T. ) ;
#213 = DIRECTION ( 'NONE',  ( 0.0000000000000000000, 0.0000000000000000000, -1.000000000000000000 ) ) ;
#214 =( GEOMETRIC_REPRESENTATION_CONTEXT ( 3 ) GLOBAL_UNCERTAINTY_ASSIGNED_CONTEXT ( ( #52 ) ) GLOBAL_UNIT_ASSIGNED_CONTEXT ( ( #190, #118, #156 ) ) REPRESENTATION_CONTEXT ( 'NONE', 'WORKASPACE' ) );
ENDSEC;
END-ISO-10303-21;
