ISO-10303-21;
HEADER;
/* Generated by software containing ST-Developer
 * from STEP Tools, Inc. (www.steptools.com) 
 */
/* OPTION: using custom schema-name function */

FILE_DESCRIPTION(
/* description */ (''),
/* implementation_level */ '2;1');

FILE_NAME(
/* name */ '3141136',
/* time_stamp */ '2014-01-14T16:15:42+01:00',
/* author */ (''),
/* organization */ (''),
/* preprocessor_version */ 'ST-DEVELOPER v15',
/* originating_system */ '',
/* authorisation */ '');

FILE_SCHEMA (('CONFIG_CONTROL_DESIGN'));
ENDSEC;

DATA;
#10=SHAPE_REPRESENTATION_RELATIONSHIP('','',#144,#12);
#11=MANIFOLD_SOLID_BREP('Aufsatz-Linear austragen1',#13);
#12=ADVANCED_BREP_SHAPE_REPRESENTATION('brep_rep_0',(#11,#146),#143);
#13=CLOSED_SHELL('',(#14,#15,#16,#17));
#14=ADVANCED_FACE('',(#18),#56,.T.);
#15=ADVANCED_FACE('',(#19),#57,.T.);
#16=ADVANCED_FACE('',(#20),#54,.T.);
#17=ADVANCED_FACE('',(#21),#55,.T.);
#18=FACE_OUTER_BOUND('',#22,.T.);
#19=FACE_OUTER_BOUND('',#23,.T.);
#20=FACE_OUTER_BOUND('',#24,.T.);
#21=FACE_OUTER_BOUND('',#25,.T.);
#22=EDGE_LOOP('',(#26,#27,#28,#29));
#23=EDGE_LOOP('',(#30,#31,#32,#33));
#24=EDGE_LOOP('',(#34,#35));
#25=EDGE_LOOP('',(#36,#37));
#26=ORIENTED_EDGE('',*,*,#38,.T.);
#27=ORIENTED_EDGE('',*,*,#39,.T.);
#28=ORIENTED_EDGE('',*,*,#40,.T.);
#29=ORIENTED_EDGE('',*,*,#41,.T.);
#30=ORIENTED_EDGE('',*,*,#39,.F.);
#31=ORIENTED_EDGE('',*,*,#42,.T.);
#32=ORIENTED_EDGE('',*,*,#41,.F.);
#33=ORIENTED_EDGE('',*,*,#43,.T.);
#34=ORIENTED_EDGE('',*,*,#42,.F.);
#35=ORIENTED_EDGE('',*,*,#38,.F.);
#36=ORIENTED_EDGE('',*,*,#40,.F.);
#37=ORIENTED_EDGE('',*,*,#43,.F.);
#38=EDGE_CURVE('',#50,#51,#46,.T.);
#39=EDGE_CURVE('',#51,#52,#44,.T.);
#40=EDGE_CURVE('',#52,#53,#47,.T.);
#41=EDGE_CURVE('',#53,#50,#45,.T.);
#42=EDGE_CURVE('',#51,#50,#48,.T.);
#43=EDGE_CURVE('',#53,#52,#49,.T.);
#44=B_SPLINE_CURVE_WITH_KNOTS('',1,(#205,#206),.UNSPECIFIED.,.F.,.F.,(2,
2),(0.,500.),.UNSPECIFIED.);
#45=B_SPLINE_CURVE_WITH_KNOTS('',1,(#212,#213),.UNSPECIFIED.,.F.,.F.,(2,
2),(-500.,0.),.UNSPECIFIED.);
#46=(
BOUNDED_CURVE()
B_SPLINE_CURVE(2,(#200,#201,#202,#203,#204),.UNSPECIFIED.,.F.,.F.)
B_SPLINE_CURVE_WITH_KNOTS((3,2,3),(-12.5663706143592,-6.28318530717959,
0.),.UNSPECIFIED.)
CURVE()
GEOMETRIC_REPRESENTATION_ITEM()
RATIONAL_B_SPLINE_CURVE((1.,0.707106781186548,1.,0.707106781186548,1.))
REPRESENTATION_ITEM('')
);
#47=(
BOUNDED_CURVE()
B_SPLINE_CURVE(2,(#207,#208,#209,#210,#211),.UNSPECIFIED.,.F.,.F.)
B_SPLINE_CURVE_WITH_KNOTS((3,2,3),(0.,6.28318530717959,12.5663706143592),
 .UNSPECIFIED.)
CURVE()
GEOMETRIC_REPRESENTATION_ITEM()
RATIONAL_B_SPLINE_CURVE((1.,0.707106781186548,1.,0.707106781186548,1.))
REPRESENTATION_ITEM('')
);
#48=(
BOUNDED_CURVE()
B_SPLINE_CURVE(2,(#214,#215,#216,#217,#218),.UNSPECIFIED.,.F.,.F.)
B_SPLINE_CURVE_WITH_KNOTS((3,2,3),(-12.5663706143592,-6.28318530717959,
0.),.UNSPECIFIED.)
CURVE()
GEOMETRIC_REPRESENTATION_ITEM()
RATIONAL_B_SPLINE_CURVE((1.,0.707106781186548,1.,0.707106781186548,1.))
REPRESENTATION_ITEM('')
);
#49=(
BOUNDED_CURVE()
B_SPLINE_CURVE(2,(#219,#220,#221,#222,#223),.UNSPECIFIED.,.F.,.F.)
B_SPLINE_CURVE_WITH_KNOTS((3,2,3),(0.,6.28318530717959,12.5663706143592),
 .UNSPECIFIED.)
CURVE()
GEOMETRIC_REPRESENTATION_ITEM()
RATIONAL_B_SPLINE_CURVE((1.,0.707106781186548,1.,0.707106781186548,1.))
REPRESENTATION_ITEM('')
);
#50=VERTEX_POINT('',#196);
#51=VERTEX_POINT('',#197);
#52=VERTEX_POINT('',#198);
#53=VERTEX_POINT('',#199);
#54=B_SPLINE_SURFACE_WITH_KNOTS('',1,1,((#188,#189),(#190,#191)),
 .UNSPECIFIED.,.F.,.F.,.F.,(2,2),(2,2),(-4.8012,4.8012),(-4.8012,4.8012),
 .UNSPECIFIED.);
#55=B_SPLINE_SURFACE_WITH_KNOTS('',1,1,((#192,#193),(#194,#195)),
 .UNSPECIFIED.,.F.,.F.,.F.,(2,2),(2,2),(-4.8012,4.8012),(-4.8012,4.8012),
 .UNSPECIFIED.);
#56=(
BOUNDED_SURFACE()
B_SPLINE_SURFACE(2,1,((#152,#153),(#154,#155),(#156,#157),(#158,#159),(#160,
#161),(#162,#163),(#164,#165),(#166,#167),(#168,#169)),.UNSPECIFIED.,.T.,
 .F.,.F.)
B_SPLINE_SURFACE_WITH_KNOTS((3,2,2,2,3),(2,2),(0.,1.5707963267949,3.14159265358979,
4.71238898038469,6.28318530717959),(0.,600.0024),.UNSPECIFIED.)
GEOMETRIC_REPRESENTATION_ITEM()
RATIONAL_B_SPLINE_SURFACE(((1.,1.),(0.707106781186548,0.707106781186548),
(1.,1.),(0.707106781186548,0.707106781186548),(1.,1.),(0.707106781186548,
0.707106781186548),(1.,1.),(0.707106781186548,0.707106781186548),(1.,1.)))
REPRESENTATION_ITEM('')
SURFACE()
);
#57=(
BOUNDED_SURFACE()
B_SPLINE_SURFACE(2,1,((#170,#171),(#172,#173),(#174,#175),(#176,#177),(#178,
#179),(#180,#181),(#182,#183),(#184,#185),(#186,#187)),.UNSPECIFIED.,.T.,
 .F.,.F.)
B_SPLINE_SURFACE_WITH_KNOTS((3,2,2,2,3),(2,2),(0.,1.5707963267949,3.14159265358979,
4.71238898038469,6.28318530717959),(0.,600.0024),.UNSPECIFIED.)
GEOMETRIC_REPRESENTATION_ITEM()
RATIONAL_B_SPLINE_SURFACE(((1.,1.),(0.707106781186548,0.707106781186548),
(1.,1.),(0.707106781186548,0.707106781186548),(1.,1.),(0.707106781186548,
0.707106781186548),(1.,1.),(0.707106781186548,0.707106781186548),(1.,1.)))
REPRESENTATION_ITEM('')
SURFACE()
);
#58=SHAPE_DEFINITION_REPRESENTATION(#59,#144);
#59=PRODUCT_DEFINITION_SHAPE('Document','',#61);
#60=PRODUCT_DEFINITION_CONTEXT('3D Mechanical Parts',#133,'design');
#61=PRODUCT_DEFINITION('A','First version',#103,#60);
#62=DATE_TIME_ROLE('classification_date');
#63=DATE_TIME_ROLE('creation_date');
#64=APPLIED_DATE_AND_TIME_ASSIGNMENT(#88,#62,(#67));
#65=APPLIED_DATE_AND_TIME_ASSIGNMENT(#90,#63,(#61));
#66=SECURITY_CLASSIFICATION_LEVEL('unclassified');
#67=SECURITY_CLASSIFICATION('A','Security for version',#66);
#68=APPLIED_SECURITY_CLASSIFICATION_ASSIGNMENT(#67,(#103));
#69=APPROVAL_ROLE('Version approval');
#70=APPROVAL_ROLE('Version Security approval');
#71=APPROVAL_ROLE('Definition approval');
#72=APPROVAL_PERSON_ORGANIZATION(#121,#97,#69);
#73=APPROVAL_PERSON_ORGANIZATION(#122,#98,#70);
#74=APPROVAL_PERSON_ORGANIZATION(#125,#99,#71);
#75=COORDINATED_UNIVERSAL_TIME_OFFSET(5,0,.BEHIND.);
#76=LOCAL_TIME(0,0,0.,#75);
#77=LOCAL_TIME(0,0,0.,#75);
#78=LOCAL_TIME(0,0,0.,#75);
#79=LOCAL_TIME(0,0,0.,#75);
#80=LOCAL_TIME(0,0,0.,#75);
#81=CALENDAR_DATE(1999,1,1);
#82=CALENDAR_DATE(1999,1,1);
#83=CALENDAR_DATE(1999,1,1);
#84=CALENDAR_DATE(1999,1,1);
#85=CALENDAR_DATE(1999,1,1);
#86=DATE_AND_TIME(#81,#76);
#87=DATE_AND_TIME(#82,#77);
#88=DATE_AND_TIME(#83,#78);
#89=DATE_AND_TIME(#84,#79);
#90=DATE_AND_TIME(#85,#80);
#91=APPROVAL_DATE_TIME(#86,#97);
#92=APPROVAL_DATE_TIME(#87,#98);
#93=APPROVAL_DATE_TIME(#89,#99);
#94=APPROVAL_STATUS('not_yet_approved');
#95=APPROVAL_STATUS('not_yet_approved');
#96=APPROVAL_STATUS('approved');
#97=APPROVAL(#94,'Version approval');
#98=APPROVAL(#95,'Version Security approval');
#99=APPROVAL(#96,'Definition approval');
#100=APPLIED_APPROVAL_ASSIGNMENT(#97,(#103));
#101=APPLIED_APPROVAL_ASSIGNMENT(#98,(#67));
#102=APPLIED_APPROVAL_ASSIGNMENT(#99,(#61));
#103=PRODUCT_DEFINITION_FORMATION_WITH_SPECIFIED_SOURCE('A',
'First version',#135,.MADE.);
#104=PERSON_AND_ORGANIZATION_ROLE('design_owner');
#105=PERSON_AND_ORGANIZATION_ROLE('creator');
#106=PERSON_AND_ORGANIZATION_ROLE('design_supplier');
#107=PERSON_AND_ORGANIZATION_ROLE('classification_officer');
#108=PERSON_AND_ORGANIZATION_ROLE('creator');
#109=ORGANIZATION('STI','lab','lab');
#110=ORGANIZATION('STI','unknown','unknown');
#111=ORGANIZATION('STI','unknown','unknown');
#112=ORGANIZATION('STI','unknown','unknown');
#113=ORGANIZATION('STI','unknown','unknown');
#114=ORGANIZATION('STI','unknown','unknown');
#115=ORGANIZATION('STI','unknown','unknown');
#116=PERSON('1','Box','vc60',$,$,$);
#117=PERSON('2','last','first',$,$,$);
#118=PERSON('3','President','Mr.',$,$,$);
#119=PERSON_AND_ORGANIZATION(#116,#109);
#120=PERSON_AND_ORGANIZATION(#117,#110);
#121=PERSON_AND_ORGANIZATION(#118,#111);
#122=PERSON_AND_ORGANIZATION(#118,#112);
#123=PERSON_AND_ORGANIZATION(#118,#113);
#124=PERSON_AND_ORGANIZATION(#117,#114);
#125=PERSON_AND_ORGANIZATION(#118,#115);
#126=APPLIED_PERSON_AND_ORGANIZATION_ASSIGNMENT(#119,#104,(#135));
#127=APPLIED_PERSON_AND_ORGANIZATION_ASSIGNMENT(#120,#105,(#103));
#128=APPLIED_PERSON_AND_ORGANIZATION_ASSIGNMENT(#120,#106,(#103));
#129=APPLIED_PERSON_AND_ORGANIZATION_ASSIGNMENT(#123,#107,(#67));
#130=APPLIED_PERSON_AND_ORGANIZATION_ASSIGNMENT(#124,#108,(#61));
#131=PRODUCT_RELATED_PRODUCT_CATEGORY('detail','detail',(#135));
#132=APPLICATION_PROTOCOL_DEFINITION('International Standard',
'config_control_design',1994,#133);
#133=APPLICATION_CONTEXT(
'configuration controlled 3d designs of mechanical parts and assemblie
s');
#134=PRODUCT_CONTEXT('3D Mechanical Parts',#133,'mechanical');
#135=PRODUCT('Document','Document','Rhino converted to STEP',(#134));
#136=(
LENGTH_UNIT()
NAMED_UNIT(*)
SI_UNIT(.MILLI.,.METRE.)
);
#137=(
NAMED_UNIT(*)
PLANE_ANGLE_UNIT()
SI_UNIT($,.RADIAN.)
);
#138=DIMENSIONAL_EXPONENTS(0.,0.,0.,0.,0.,0.,0.);
#139=PLANE_ANGLE_MEASURE_WITH_UNIT(PLANE_ANGLE_MEASURE(0.01745329252),#137);
#140=(
CONVERSION_BASED_UNIT('DEGREES',#139)
NAMED_UNIT(#138)
PLANE_ANGLE_UNIT()
);
#141=(
NAMED_UNIT(*)
SI_UNIT($,.STERADIAN.)
SOLID_ANGLE_UNIT()
);
#142=UNCERTAINTY_MEASURE_WITH_UNIT(LENGTH_MEASURE(0.0001),#136,
'DISTANCE_ACCURACY_VALUE',
'Maximum model space distance between geometric entities at asserted c
onnectivities');
#143=(
GEOMETRIC_REPRESENTATION_CONTEXT(3)
GLOBAL_UNCERTAINTY_ASSIGNED_CONTEXT((#142))
GLOBAL_UNIT_ASSIGNED_CONTEXT((#141,#140,#136))
REPRESENTATION_CONTEXT('ID1','3D')
);
#144=SHAPE_REPRESENTATION('Document',(#145,#146),#143);
#145=AXIS2_PLACEMENT_3D('',#151,#147,#148);
#146=AXIS2_PLACEMENT_3D('',#224,#149,#150);
#147=DIRECTION('',(0.,0.,1.));
#148=DIRECTION('',(1.,0.,0.));
#149=DIRECTION('',(0.,0.,1.));
#150=DIRECTION('',(1.,0.,0.));
#151=CARTESIAN_POINT('',(0.,0.,0.));
#152=CARTESIAN_POINT('',(-4.,2200.0048,3.3945107478028E-08));
#153=CARTESIAN_POINT('',(-4.,-200.0048,-3.08598619063081E-09));
#154=CARTESIAN_POINT('',(-4.,2200.00479999975,-3.99999996605489));
#155=CARTESIAN_POINT('',(-4.,-200.004800000247,-4.00000000308598));
#156=CARTESIAN_POINT('',(-2.44929359829471E-16,2200.00479999975,-3.99999996605489));
#157=CARTESIAN_POINT('',(-2.44929359829471E-16,-200.004800000247,-4.00000000308599));
#158=CARTESIAN_POINT('',(4.,2200.00479999975,-3.99999996605489));
#159=CARTESIAN_POINT('',(4.,-200.004800000247,-4.00000000308599));
#160=CARTESIAN_POINT('',(4.,2200.0048,3.39451069881693E-08));
#161=CARTESIAN_POINT('',(4.,-200.0048,-3.08598668048953E-09));
#162=CARTESIAN_POINT('',(4.,2200.00480000025,4.00000003394511));
#163=CARTESIAN_POINT('',(4.,-200.004799999753,3.99999999691401));
#164=CARTESIAN_POINT('',(7.34788079488412E-16,2200.00480000025,4.00000003394511));
#165=CARTESIAN_POINT('',(7.34788079488412E-16,-200.004799999753,3.99999999691401));
#166=CARTESIAN_POINT('',(-4.,2200.00480000025,4.00000003394511));
#167=CARTESIAN_POINT('',(-4.,-200.004799999753,3.99999999691401));
#168=CARTESIAN_POINT('',(-4.,2200.0048,3.3945107478028E-08));
#169=CARTESIAN_POINT('',(-4.,-200.0048,-3.08598619063081E-09));
#170=CARTESIAN_POINT('',(4.,2200.0048,3.3945107478028E-08));
#171=CARTESIAN_POINT('',(4.,-200.0048,-3.08598619063081E-09));
#172=CARTESIAN_POINT('',(4.,2200.00480000025,4.00000003394511));
#173=CARTESIAN_POINT('',(4.,-200.004799999753,3.99999999691401));
#174=CARTESIAN_POINT('',(2.44929359829471E-16,2200.00480000025,4.00000003394511));
#175=CARTESIAN_POINT('',(2.44929359829471E-16,-200.004799999753,3.99999999691401));
#176=CARTESIAN_POINT('',(-4.,2200.00480000025,4.00000003394511));
#177=CARTESIAN_POINT('',(-4.,-200.004799999753,3.99999999691401));
#178=CARTESIAN_POINT('',(-4.,2200.0048,3.39451079678868E-08));
#179=CARTESIAN_POINT('',(-4.,-200.0048,-3.08598570077209E-09));
#180=CARTESIAN_POINT('',(-4.,2200.00479999975,-3.99999996605489));
#181=CARTESIAN_POINT('',(-4.,-200.004800000247,-4.00000000308598));
#182=CARTESIAN_POINT('',(-7.34788079488412E-16,2200.00479999975,-3.99999996605489));
#183=CARTESIAN_POINT('',(-7.34788079488412E-16,-200.004800000247,-4.00000000308599));
#184=CARTESIAN_POINT('',(4.,2200.00479999975,-3.99999996605489));
#185=CARTESIAN_POINT('',(4.,-200.004800000247,-4.00000000308599));
#186=CARTESIAN_POINT('',(4.,2200.0048,3.3945107478028E-08));
#187=CARTESIAN_POINT('',(4.,-200.0048,-3.08598619063081E-09));
#188=CARTESIAN_POINT('',(-4.8012,1999.9999999997,-4.80119996914088));
#189=CARTESIAN_POINT('',(4.8012,1999.9999999997,-4.80119996914088));
#190=CARTESIAN_POINT('',(-4.8012,2000.0000000003,4.80120003085912));
#191=CARTESIAN_POINT('',(4.8012,2000.0000000003,4.80120003085912));
#192=CARTESIAN_POINT('',(-4.8012,-2.96293204540673E-10,-4.8012));
#193=CARTESIAN_POINT('',(-4.8012,2.96350047959534E-10,4.8012));
#194=CARTESIAN_POINT('',(4.8012,-2.96293204540673E-10,-4.8012));
#195=CARTESIAN_POINT('',(4.8012,2.96350047959534E-10,4.8012));
#196=CARTESIAN_POINT('',(0.,1999.99999999975,-3.99999996914088));
#197=CARTESIAN_POINT('',(3.28692043842088E-32,2000.00000000025,4.00000003085912));
#198=CARTESIAN_POINT('',(3.28692043842088E-32,2.46920339814895E-10,4.));
#199=CARTESIAN_POINT('',(0.,-2.46825600783461E-10,-4.));
#200=CARTESIAN_POINT('',(0.,1999.99999999975,-3.99999996914088));
#201=CARTESIAN_POINT('',(4.,1999.99999999975,-3.99999996914088));
#202=CARTESIAN_POINT('',(4.,2000.,3.08591210424679E-08));
#203=CARTESIAN_POINT('',(4.,2000.00000000025,4.00000003085912));
#204=CARTESIAN_POINT('',(0.,2000.00000000025,4.00000003085912));
#205=CARTESIAN_POINT('',(3.28692043842088E-32,2000.00000000025,4.00000003085912));
#206=CARTESIAN_POINT('',(3.28692043842088E-32,2.46920339814895E-10,4.));
#207=CARTESIAN_POINT('',(1.68290326447149E-29,2.46920339814895E-10,4.));
#208=CARTESIAN_POINT('',(4.,2.46863496396034E-10,4.));
#209=CARTESIAN_POINT('',(4.,-9.473903143468E-15,2.44929359829471E-16));
#210=CARTESIAN_POINT('',(4.,-2.46882444202321E-10,-4.));
#211=CARTESIAN_POINT('',(1.68290326447149E-29,-2.46825600783461E-10,-4.));
#212=CARTESIAN_POINT('',(0.,-2.46825600783461E-10,-4.));
#213=CARTESIAN_POINT('',(0.,1999.99999999975,-3.99999996914088));
#214=CARTESIAN_POINT('',(0.,2000.00000000025,4.00000003085912));
#215=CARTESIAN_POINT('',(-4.,2000.00000000025,4.00000003085912));
#216=CARTESIAN_POINT('',(-4.,2000.,3.08591215323266E-08));
#217=CARTESIAN_POINT('',(-4.,1999.99999999975,-3.99999996914088));
#218=CARTESIAN_POINT('',(0.,1999.99999999975,-3.99999996914088));
#219=CARTESIAN_POINT('',(-1.68290326447149E-29,-2.46825600783461E-10,-4.));
#220=CARTESIAN_POINT('',(-4.,-2.46882444202321E-10,-4.));
#221=CARTESIAN_POINT('',(-4.,-9.47390314349823E-15,-2.44929359829471E-16));
#222=CARTESIAN_POINT('',(-4.,2.46863496396034E-10,4.));
#223=CARTESIAN_POINT('',(-1.68290326447149E-29,2.46920339814895E-10,4.));
#224=CARTESIAN_POINT('',(0.,0.,0.));
ENDSEC;
END-ISO-10303-21;
