ISO-10303-21;
HEADER;
/* Generated by software containing ST-Developer
 * from STEP Tools, Inc. (www.steptools.com) 
 */
/* OPTION: using custom schema-name function */

FILE_DESCRIPTION(
/* description */ (''),
/* implementation_level */ '2;1');

FILE_NAME(
/* name */ '3141047',
/* time_stamp */ '2014-01-14T16:14:05+01:00',
/* author */ (''),
/* organization */ (''),
/* preprocessor_version */ 'ST-DEVELOPER v15',
/* originating_system */ '',
/* authorisation */ '');

FILE_SCHEMA (('CONFIG_CONTROL_DESIGN'));
ENDSEC;

DATA;
#10=SHAPE_REPRESENTATION_RELATIONSHIP('','',#144,#12);
#11=MANIFOLD_SOLID_BREP('Gewindestange',#13);
#12=ADVANCED_BREP_SHAPE_REPRESENTATION('brep_rep_0',(#11,#148),#143);
#13=CLOSED_SHELL('',(#14,#15,#16,#17));
#14=ADVANCED_FACE('',(#18),#56,.T.);
#15=ADVANCED_FACE('',(#19),#57,.T.);
#16=ADVANCED_FACE('',(#20),#54,.T.);
#17=ADVANCED_FACE('',(#21),#55,.T.);
#18=FACE_OUTER_BOUND('',#22,.T.);
#19=FACE_OUTER_BOUND('',#23,.T.);
#20=FACE_OUTER_BOUND('',#24,.T.);
#21=FACE_OUTER_BOUND('',#25,.T.);
#22=EDGE_LOOP('',(#26,#27,#28,#29));
#23=EDGE_LOOP('',(#30,#31,#32,#33));
#24=EDGE_LOOP('',(#34,#35));
#25=EDGE_LOOP('',(#36,#37));
#26=ORIENTED_EDGE('',*,*,#38,.T.);
#27=ORIENTED_EDGE('',*,*,#39,.T.);
#28=ORIENTED_EDGE('',*,*,#40,.T.);
#29=ORIENTED_EDGE('',*,*,#41,.T.);
#30=ORIENTED_EDGE('',*,*,#39,.F.);
#31=ORIENTED_EDGE('',*,*,#42,.T.);
#32=ORIENTED_EDGE('',*,*,#41,.F.);
#33=ORIENTED_EDGE('',*,*,#43,.T.);
#34=ORIENTED_EDGE('',*,*,#42,.F.);
#35=ORIENTED_EDGE('',*,*,#38,.F.);
#36=ORIENTED_EDGE('',*,*,#40,.F.);
#37=ORIENTED_EDGE('',*,*,#43,.F.);
#38=EDGE_CURVE('',#50,#51,#46,.T.);
#39=EDGE_CURVE('',#51,#52,#44,.T.);
#40=EDGE_CURVE('',#52,#53,#47,.T.);
#41=EDGE_CURVE('',#53,#50,#45,.T.);
#42=EDGE_CURVE('',#51,#50,#48,.T.);
#43=EDGE_CURVE('',#53,#52,#49,.T.);
#44=B_SPLINE_CURVE_WITH_KNOTS('',1,(#203,#204),.UNSPECIFIED.,.F.,.F.,(2,
2),(0.,500.),.UNSPECIFIED.);
#45=B_SPLINE_CURVE_WITH_KNOTS('',1,(#210,#211),.UNSPECIFIED.,.F.,.F.,(2,
2),(-500.,0.),.UNSPECIFIED.);
#46=(
BOUNDED_CURVE()
B_SPLINE_CURVE(2,(#198,#199,#200,#201,#202),.UNSPECIFIED.,.F.,.F.)
B_SPLINE_CURVE_WITH_KNOTS((3,2,3),(-9.42477796076938,-4.71238898038469,
0.),.UNSPECIFIED.)
CURVE()
GEOMETRIC_REPRESENTATION_ITEM()
RATIONAL_B_SPLINE_CURVE((1.,0.707106781186548,1.,0.707106781186548,1.))
REPRESENTATION_ITEM('')
);
#47=(
BOUNDED_CURVE()
B_SPLINE_CURVE(2,(#205,#206,#207,#208,#209),.UNSPECIFIED.,.F.,.F.)
B_SPLINE_CURVE_WITH_KNOTS((3,2,3),(0.,4.71238898038469,9.42477796076938),
 .UNSPECIFIED.)
CURVE()
GEOMETRIC_REPRESENTATION_ITEM()
RATIONAL_B_SPLINE_CURVE((1.,0.707106781186548,1.,0.707106781186548,1.))
REPRESENTATION_ITEM('')
);
#48=(
BOUNDED_CURVE()
B_SPLINE_CURVE(2,(#212,#213,#214,#215,#216),.UNSPECIFIED.,.F.,.F.)
B_SPLINE_CURVE_WITH_KNOTS((3,2,3),(-9.42477796076938,-4.71238898038469,
0.),.UNSPECIFIED.)
CURVE()
GEOMETRIC_REPRESENTATION_ITEM()
RATIONAL_B_SPLINE_CURVE((1.,0.707106781186548,1.,0.707106781186548,1.))
REPRESENTATION_ITEM('')
);
#49=(
BOUNDED_CURVE()
B_SPLINE_CURVE(2,(#217,#218,#219,#220,#221),.UNSPECIFIED.,.F.,.F.)
B_SPLINE_CURVE_WITH_KNOTS((3,2,3),(0.,4.71238898038469,9.42477796076938),
 .UNSPECIFIED.)
CURVE()
GEOMETRIC_REPRESENTATION_ITEM()
RATIONAL_B_SPLINE_CURVE((1.,0.707106781186548,1.,0.707106781186548,1.))
REPRESENTATION_ITEM('')
);
#50=VERTEX_POINT('',#194);
#51=VERTEX_POINT('',#195);
#52=VERTEX_POINT('',#196);
#53=VERTEX_POINT('',#197);
#54=PLANE('',#146);
#55=PLANE('',#147);
#56=(
BOUNDED_SURFACE()
B_SPLINE_SURFACE(2,1,((#156,#157),(#158,#159),(#160,#161),(#162,#163),(#164,
#165),(#166,#167),(#168,#169),(#170,#171),(#172,#173)),.UNSPECIFIED.,.T.,
 .F.,.F.)
B_SPLINE_SURFACE_WITH_KNOTS((3,2,2,2,3),(2,2),(0.,1.5707963267949,3.14159265358979,
4.71238898038469,6.28318530717959),(0.,600.0024),.UNSPECIFIED.)
GEOMETRIC_REPRESENTATION_ITEM()
RATIONAL_B_SPLINE_SURFACE(((1.,1.),(0.707106781186548,0.707106781186548),
(1.,1.),(0.707106781186548,0.707106781186548),(1.,1.),(0.707106781186548,
0.707106781186548),(1.,1.),(0.707106781186548,0.707106781186548),(1.,1.)))
REPRESENTATION_ITEM('')
SURFACE()
);
#57=(
BOUNDED_SURFACE()
B_SPLINE_SURFACE(2,1,((#174,#175),(#176,#177),(#178,#179),(#180,#181),(#182,
#183),(#184,#185),(#186,#187),(#188,#189),(#190,#191)),.UNSPECIFIED.,.T.,
 .F.,.F.)
B_SPLINE_SURFACE_WITH_KNOTS((3,2,2,2,3),(2,2),(0.,1.5707963267949,3.14159265358979,
4.71238898038469,6.28318530717959),(0.,600.0024),.UNSPECIFIED.)
GEOMETRIC_REPRESENTATION_ITEM()
RATIONAL_B_SPLINE_SURFACE(((1.,1.),(0.707106781186548,0.707106781186548),
(1.,1.),(0.707106781186548,0.707106781186548),(1.,1.),(0.707106781186548,
0.707106781186548),(1.,1.),(0.707106781186548,0.707106781186548),(1.,1.)))
REPRESENTATION_ITEM('')
SURFACE()
);
#58=SHAPE_DEFINITION_REPRESENTATION(#59,#144);
#59=PRODUCT_DEFINITION_SHAPE('Document','',#61);
#60=PRODUCT_DEFINITION_CONTEXT('3D Mechanical Parts',#133,'design');
#61=PRODUCT_DEFINITION('A','First version',#103,#60);
#62=DATE_TIME_ROLE('classification_date');
#63=DATE_TIME_ROLE('creation_date');
#64=APPLIED_DATE_AND_TIME_ASSIGNMENT(#88,#62,(#67));
#65=APPLIED_DATE_AND_TIME_ASSIGNMENT(#90,#63,(#61));
#66=SECURITY_CLASSIFICATION_LEVEL('unclassified');
#67=SECURITY_CLASSIFICATION('A','Security for version',#66);
#68=APPLIED_SECURITY_CLASSIFICATION_ASSIGNMENT(#67,(#103));
#69=APPROVAL_ROLE('Version approval');
#70=APPROVAL_ROLE('Version Security approval');
#71=APPROVAL_ROLE('Definition approval');
#72=APPROVAL_PERSON_ORGANIZATION(#121,#97,#69);
#73=APPROVAL_PERSON_ORGANIZATION(#122,#98,#70);
#74=APPROVAL_PERSON_ORGANIZATION(#125,#99,#71);
#75=COORDINATED_UNIVERSAL_TIME_OFFSET(5,0,.BEHIND.);
#76=LOCAL_TIME(0,0,0.,#75);
#77=LOCAL_TIME(0,0,0.,#75);
#78=LOCAL_TIME(0,0,0.,#75);
#79=LOCAL_TIME(0,0,0.,#75);
#80=LOCAL_TIME(0,0,0.,#75);
#81=CALENDAR_DATE(1999,1,1);
#82=CALENDAR_DATE(1999,1,1);
#83=CALENDAR_DATE(1999,1,1);
#84=CALENDAR_DATE(1999,1,1);
#85=CALENDAR_DATE(1999,1,1);
#86=DATE_AND_TIME(#81,#76);
#87=DATE_AND_TIME(#82,#77);
#88=DATE_AND_TIME(#83,#78);
#89=DATE_AND_TIME(#84,#79);
#90=DATE_AND_TIME(#85,#80);
#91=APPROVAL_DATE_TIME(#86,#97);
#92=APPROVAL_DATE_TIME(#87,#98);
#93=APPROVAL_DATE_TIME(#89,#99);
#94=APPROVAL_STATUS('not_yet_approved');
#95=APPROVAL_STATUS('not_yet_approved');
#96=APPROVAL_STATUS('approved');
#97=APPROVAL(#94,'Version approval');
#98=APPROVAL(#95,'Version Security approval');
#99=APPROVAL(#96,'Definition approval');
#100=APPLIED_APPROVAL_ASSIGNMENT(#97,(#103));
#101=APPLIED_APPROVAL_ASSIGNMENT(#98,(#67));
#102=APPLIED_APPROVAL_ASSIGNMENT(#99,(#61));
#103=PRODUCT_DEFINITION_FORMATION_WITH_SPECIFIED_SOURCE('A',
'First version',#135,.MADE.);
#104=PERSON_AND_ORGANIZATION_ROLE('design_owner');
#105=PERSON_AND_ORGANIZATION_ROLE('creator');
#106=PERSON_AND_ORGANIZATION_ROLE('design_supplier');
#107=PERSON_AND_ORGANIZATION_ROLE('classification_officer');
#108=PERSON_AND_ORGANIZATION_ROLE('creator');
#109=ORGANIZATION('STI','lab','lab');
#110=ORGANIZATION('STI','unknown','unknown');
#111=ORGANIZATION('STI','unknown','unknown');
#112=ORGANIZATION('STI','unknown','unknown');
#113=ORGANIZATION('STI','unknown','unknown');
#114=ORGANIZATION('STI','unknown','unknown');
#115=ORGANIZATION('STI','unknown','unknown');
#116=PERSON('1','Box','vc60',$,$,$);
#117=PERSON('2','last','first',$,$,$);
#118=PERSON('3','President','Mr.',$,$,$);
#119=PERSON_AND_ORGANIZATION(#116,#109);
#120=PERSON_AND_ORGANIZATION(#117,#110);
#121=PERSON_AND_ORGANIZATION(#118,#111);
#122=PERSON_AND_ORGANIZATION(#118,#112);
#123=PERSON_AND_ORGANIZATION(#118,#113);
#124=PERSON_AND_ORGANIZATION(#117,#114);
#125=PERSON_AND_ORGANIZATION(#118,#115);
#126=APPLIED_PERSON_AND_ORGANIZATION_ASSIGNMENT(#119,#104,(#135));
#127=APPLIED_PERSON_AND_ORGANIZATION_ASSIGNMENT(#120,#105,(#103));
#128=APPLIED_PERSON_AND_ORGANIZATION_ASSIGNMENT(#120,#106,(#103));
#129=APPLIED_PERSON_AND_ORGANIZATION_ASSIGNMENT(#123,#107,(#67));
#130=APPLIED_PERSON_AND_ORGANIZATION_ASSIGNMENT(#124,#108,(#61));
#131=PRODUCT_RELATED_PRODUCT_CATEGORY('detail','detail',(#135));
#132=APPLICATION_PROTOCOL_DEFINITION('International Standard',
'config_control_design',1994,#133);
#133=APPLICATION_CONTEXT(
'configuration controlled 3d designs of mechanical parts and assemblie
s');
#134=PRODUCT_CONTEXT('3D Mechanical Parts',#133,'mechanical');
#135=PRODUCT('Document','Document','Rhino converted to STEP',(#134));
#136=(
LENGTH_UNIT()
NAMED_UNIT(*)
SI_UNIT(.MILLI.,.METRE.)
);
#137=(
NAMED_UNIT(*)
PLANE_ANGLE_UNIT()
SI_UNIT($,.RADIAN.)
);
#138=DIMENSIONAL_EXPONENTS(0.,0.,0.,0.,0.,0.,0.);
#139=PLANE_ANGLE_MEASURE_WITH_UNIT(PLANE_ANGLE_MEASURE(0.01745329252),#137);
#140=(
CONVERSION_BASED_UNIT('DEGREES',#139)
NAMED_UNIT(#138)
PLANE_ANGLE_UNIT()
);
#141=(
NAMED_UNIT(*)
SI_UNIT($,.STERADIAN.)
SOLID_ANGLE_UNIT()
);
#142=UNCERTAINTY_MEASURE_WITH_UNIT(LENGTH_MEASURE(0.0001),#136,
'DISTANCE_ACCURACY_VALUE',
'Maximum model space distance between geometric entities at asserted c
onnectivities');
#143=(
GEOMETRIC_REPRESENTATION_CONTEXT(3)
GLOBAL_UNCERTAINTY_ASSIGNED_CONTEXT((#142))
GLOBAL_UNIT_ASSIGNED_CONTEXT((#141,#140,#136))
REPRESENTATION_CONTEXT('ID1','3D')
);
#144=SHAPE_REPRESENTATION('Document',(#145,#148),#143);
#145=AXIS2_PLACEMENT_3D('',#155,#149,#150);
#146=AXIS2_PLACEMENT_3D('',#192,#151,$);
#147=AXIS2_PLACEMENT_3D('',#193,#152,$);
#148=AXIS2_PLACEMENT_3D('',#222,#153,#154);
#149=DIRECTION('',(0.,0.,1.));
#150=DIRECTION('',(1.,0.,0.));
#151=DIRECTION('',(0.,1.,0.));
#152=DIRECTION('',(0.,-1.,0.));
#153=DIRECTION('',(0.,0.,1.));
#154=DIRECTION('',(1.,0.,0.));
#155=CARTESIAN_POINT('',(0.,0.,0.));
#156=CARTESIAN_POINT('',(-3.,1100.0024,-4.04134325464322E-16));
#157=CARTESIAN_POINT('',(-3.,-100.0024,3.67402857201159E-17));
#158=CARTESIAN_POINT('',(-3.,1100.0024,-3.));
#159=CARTESIAN_POINT('',(-3.,-100.0024,-3.));
#160=CARTESIAN_POINT('',(-1.83697019872103E-16,1100.0024,-3.));
#161=CARTESIAN_POINT('',(-1.83697019872103E-16,-100.0024,-3.));
#162=CARTESIAN_POINT('',(3.,1100.0024,-3.));
#163=CARTESIAN_POINT('',(3.,-100.0024,-3.));
#164=CARTESIAN_POINT('',(3.,1100.0024,-7.71528365208528E-16));
#165=CARTESIAN_POINT('',(3.,-100.0024,-3.3065375402409E-16));
#166=CARTESIAN_POINT('',(3.,1100.0024,3.));
#167=CARTESIAN_POINT('',(3.,-100.0024,3.));
#168=CARTESIAN_POINT('',(5.51091059616309E-16,1100.0024,3.));
#169=CARTESIAN_POINT('',(5.51091059616309E-16,-100.0024,3.));
#170=CARTESIAN_POINT('',(-3.,1100.0024,3.));
#171=CARTESIAN_POINT('',(-3.,-100.0024,3.));
#172=CARTESIAN_POINT('',(-3.,1100.0024,-4.04134325464322E-16));
#173=CARTESIAN_POINT('',(-3.,-100.0024,3.67402857201159E-17));
#174=CARTESIAN_POINT('',(3.,1100.0024,-4.04134325464322E-16));
#175=CARTESIAN_POINT('',(3.,-100.0024,3.67402857201159E-17));
#176=CARTESIAN_POINT('',(3.,1100.0024,3.));
#177=CARTESIAN_POINT('',(3.,-100.0024,3.));
#178=CARTESIAN_POINT('',(1.83697019872103E-16,1100.0024,3.));
#179=CARTESIAN_POINT('',(1.83697019872103E-16,-100.0024,3.));
#180=CARTESIAN_POINT('',(-3.,1100.0024,3.));
#181=CARTESIAN_POINT('',(-3.,-100.0024,3.));
#182=CARTESIAN_POINT('',(-3.,1100.0024,-3.67402857201158E-17));
#183=CARTESIAN_POINT('',(-3.,-100.0024,4.04134325464322E-16));
#184=CARTESIAN_POINT('',(-3.,1100.0024,-3.));
#185=CARTESIAN_POINT('',(-3.,-100.0024,-3.));
#186=CARTESIAN_POINT('',(-5.51091059616309E-16,1100.0024,-3.));
#187=CARTESIAN_POINT('',(-5.51091059616309E-16,-100.0024,-3.));
#188=CARTESIAN_POINT('',(3.,1100.0024,-3.));
#189=CARTESIAN_POINT('',(3.,-100.0024,-3.));
#190=CARTESIAN_POINT('',(3.,1100.0024,-4.04134325464322E-16));
#191=CARTESIAN_POINT('',(3.,-100.0024,3.67402857201159E-17));
#192=CARTESIAN_POINT('',(-3.6012,1000.,-3.6012));
#193=CARTESIAN_POINT('',(-3.6012,9.47654926229986E-15,-3.6012));
#194=CARTESIAN_POINT('',(0.,1000.,-3.));
#195=CARTESIAN_POINT('',(1.64346021921044E-32,1000.,3.));
#196=CARTESIAN_POINT('',(1.64346021921044E-32,1.89456019226975E-14,3.));
#197=CARTESIAN_POINT('',(0.,1.89500106511745E-14,-3.));
#198=CARTESIAN_POINT('',(0.,1000.,-3.));
#199=CARTESIAN_POINT('',(3.,1000.,-3.));
#200=CARTESIAN_POINT('',(3.,1000.,-5.51091059616309E-16));
#201=CARTESIAN_POINT('',(3.,1000.,3.));
#202=CARTESIAN_POINT('',(0.,1000.,3.));
#203=CARTESIAN_POINT('',(1.64346021921044E-32,1000.,3.));
#204=CARTESIAN_POINT('',(1.64346021921044E-32,1.89456019226975E-14,3.));
#205=CARTESIAN_POINT('',(2.24387101929532E-29,1.89456019226975E-14,3.));
#206=CARTESIAN_POINT('',(3.,-9.47610750770646E-15,3.));
#207=CARTESIAN_POINT('',(3.,-9.473903143468E-15,1.83697019872103E-16));
#208=CARTESIAN_POINT('',(3.,-9.47169877922954E-15,-3.));
#209=CARTESIAN_POINT('',(2.24387101929532E-29,1.89500106511745E-14,-3.));
#210=CARTESIAN_POINT('',(0.,1.89500106511745E-14,-3.));
#211=CARTESIAN_POINT('',(0.,1000.,-3.));
#212=CARTESIAN_POINT('',(0.,1000.,3.));
#213=CARTESIAN_POINT('',(-3.,1000.,3.));
#214=CARTESIAN_POINT('',(-3.,1000.,-1.83697019872103E-16));
#215=CARTESIAN_POINT('',(-3.,1000.,-3.));
#216=CARTESIAN_POINT('',(0.,1000.,-3.));
#217=CARTESIAN_POINT('',(-2.24387101929532E-29,1.89500106511745E-14,-3.));
#218=CARTESIAN_POINT('',(-3.,-9.47169877922953E-15,-3.));
#219=CARTESIAN_POINT('',(-3.,-9.473903143468E-15,-1.83697019872103E-16));
#220=CARTESIAN_POINT('',(-3.,-9.47610750770647E-15,3.));
#221=CARTESIAN_POINT('',(-2.24387101929532E-29,1.89456019226975E-14,3.));
#222=CARTESIAN_POINT('',(0.,0.,0.));
ENDSEC;
END-ISO-10303-21;
