ISO-10303-21;
HEADER;
FILE_DESCRIPTION (( 'STEP AP214' ),
    '1' );
FILE_NAME ('3105032.stp',
    '2017-03-28T09:21:24',
    ( '' ),
    ( '' ),
    'SwSTEP 2.0',
    'SolidWorks 2016',
    '' );
FILE_SCHEMA (( 'AUTOMOTIVE_DESIGN' ));
ENDSEC;

DATA;
#1 = CARTESIAN_POINT ( 'NONE',  ( -24.24232602085180200, 88.58936029239140500, -2.000000000000000000 ) ) ;
#2 = DIRECTION ( 'NONE',  ( 0.0000000000000000000, 0.0000000000000000000, 1.000000000000000000 ) ) ;
#3 = DIRECTION ( 'NONE',  ( 0.0000000000000000000, 0.0000000000000000000, 1.000000000000000000 ) ) ;
#4 = EDGE_LOOP ( 'NONE', ( #100, #128, #43, #122 ) ) ;
#5 = AXIS2_PLACEMENT_3D ( 'NONE', #167, #157, #179 ) ;
#6 = CLOSED_SHELL ( 'NONE', ( #312, #53, #254, #279, #239, #235, #240, #259, #231, #70, #280 ) ) ;
#7 = DIRECTION ( 'NONE',  ( 0.0000000000000000000, 1.000000000000000000, 0.0000000000000000000 ) ) ;
#8 = CARTESIAN_POINT ( 'NONE',  ( -24.24232602085180200, 82.44825923593209900, -2.000000000000000000 ) ) ;
#9 = CARTESIAN_POINT ( 'NONE',  ( -24.24232602085180200, 82.44825923593209900, 0.0000000000000000000 ) ) ;
#10 = EDGE_CURVE ( 'NONE', #95, #163, #330, .T. ) ;
#11 = ORIENTED_EDGE ( 'NONE', *, *, #83, .T. ) ;
#12 = EDGE_CURVE ( 'NONE', #54, #258, #334, .T. ) ;
#13 = ORIENTED_EDGE ( 'NONE', *, *, #42, .T. ) ;
#14 = EDGE_LOOP ( 'NONE', ( #13, #257, #15, #307 ) ) ;
#15 = ORIENTED_EDGE ( 'NONE', *, *, #197, .F. ) ;
#16 = VERTEX_POINT ( 'NONE', #8 ) ;
#17 = EDGE_CURVE ( 'NONE', #69, #73, #103, .T. ) ;
#18 =( NAMED_UNIT ( * ) PLANE_ANGLE_UNIT ( ) SI_UNIT ( $, .RADIAN. ) );
#19 = AXIS2_PLACEMENT_3D ( 'NONE', #96, #321, #324 ) ;
#20 = FACE_OUTER_BOUND ( 'NONE', #4, .T. ) ;
#21 = CYLINDRICAL_SURFACE ( 'NONE', #222, 2.000000000000000000 ) ;
#22 = DIRECTION ( 'NONE',  ( 0.0000000000000000000, 1.000000000000000000, 0.0000000000000000000 ) ) ;
#23 = CARTESIAN_POINT ( 'NONE',  ( -24.24232602085180200, 94.98046134885069600, -5.000000000000000000 ) ) ;
#24 = EDGE_CURVE ( 'NONE', #322, #108, #243, .T. ) ;
#25 = AXIS2_PLACEMENT_3D ( 'NONE', #175, #176, #177 ) ;
#26 =( NAMED_UNIT ( * ) SI_UNIT ( $, .STERADIAN. ) SOLID_ANGLE_UNIT ( ) );
#27 = AXIS2_PLACEMENT_3D ( 'NONE', #327, #164, #333 ) ;
#28 = CARTESIAN_POINT ( 'NONE',  ( -24.24232602085180200, 95.73046134885069600, 2.000000000000000000 ) ) ;
#29 = LINE ( 'NONE', #1, #291 ) ;
#30 = DIRECTION ( 'NONE',  ( 0.0000000000000000000, 1.000000000000000000, 0.0000000000000000000 ) ) ;
#31 = ORIENTED_EDGE ( 'NONE', *, *, #44, .F. ) ;
#32 = AXIS2_PLACEMENT_3D ( 'NONE', #297, #309, #289 ) ;
#33 = ORIENTED_EDGE ( 'NONE', *, *, #17, .T. ) ;
#34 = DIRECTION ( 'NONE',  ( 0.0000000000000000000, 1.000000000000000000, 0.0000000000000000000 ) ) ;
#35 = ORIENTED_EDGE ( 'NONE', *, *, #42, .F. ) ;
#36 = CARTESIAN_POINT ( 'NONE',  ( -24.24232602085180200, 95.73046134885069600, 0.0000000000000000000 ) ) ;
#37 = ORIENTED_EDGE ( 'NONE', *, *, #343, .T. ) ;
#38 = PRODUCT_DEFINITION_CONTEXT ( 'detailed design', #60, 'design' ) ;
#39 = ORIENTED_EDGE ( 'NONE', *, *, #201, .F. ) ;
#40 = EDGE_CURVE ( 'NONE', #191, #71, #200, .T. ) ;
#41 = FACE_OUTER_BOUND ( 'NONE', #77, .T. ) ;
#42 = EDGE_CURVE ( 'NONE', #99, #191, #104, .T. ) ;
#43 = ORIENTED_EDGE ( 'NONE', *, *, #44, .T. ) ;
#44 = EDGE_CURVE ( 'NONE', #258, #54, #242, .T. ) ;
#45 = AXIS2_PLACEMENT_3D ( 'NONE', #93, #61, #66 ) ;
#46 = CYLINDRICAL_SURFACE ( 'NONE', #189, 5.000000000000000000 ) ;
#47 = EDGE_CURVE ( 'NONE', #16, #95, #138, .T. ) ;
#48 = ORIENTED_EDGE ( 'NONE', *, *, #62, .T. ) ;
#49 = ORIENTED_EDGE ( 'NONE', *, *, #202, .T. ) ;
#50 = APPLICATION_CONTEXT ( 'automotive_design' ) ;
#51 = EDGE_CURVE ( 'NONE', #71, #98, #143, .T. ) ;
#52 = FILL_AREA_STYLE ('',( #320 ) ) ;
#53 = ADVANCED_FACE ( 'NONE', ( #229 ), #268, .T. ) ;
#54 = VERTEX_POINT ( 'NONE', #269 ) ;
#55 = SHAPE_DEFINITION_REPRESENTATION ( #145, #266 ) ;
#56 = VERTEX_POINT ( 'NONE', #271 ) ;
#57 = EDGE_CURVE ( 'NONE', #163, #69, #316, .T. ) ;
#58 = DIRECTION ( 'NONE',  ( 0.0000000000000000000, 0.0000000000000000000, 1.000000000000000000 ) ) ;
#59 = AXIS2_PLACEMENT_3D ( 'NONE', #210, #146, #214 ) ;
#60 = APPLICATION_CONTEXT ( 'automotive_design' ) ;
#61 = DIRECTION ( 'NONE',  ( 0.0000000000000000000, 0.0000000000000000000, -1.000000000000000000 ) ) ;
#62 = EDGE_CURVE ( 'NONE', #99, #98, #285, .T. ) ;
#63 = DIRECTION ( 'NONE',  ( 0.0000000000000000000, 0.0000000000000000000, 1.000000000000000000 ) ) ;
#64 = CARTESIAN_POINT ( 'NONE',  ( -24.24232602085180200, 103.7304613488509900, 2.000000000000000000 ) ) ;
#65 = FACE_OUTER_BOUND ( 'NONE', #78, .T. ) ;
#66 = DIRECTION ( 'NONE',  ( -1.000000000000000000, 0.0000000000000000000, 0.0000000000000000000 ) ) ;
#67 = DIRECTION ( 'NONE',  ( -0.0000000000000000000, -1.000000000000000000, -0.0000000000000000000 ) ) ;
#68 = ORIENTED_EDGE ( 'NONE', *, *, #198, .F. ) ;
#69 = VERTEX_POINT ( 'NONE', #318 ) ;
#70 = ADVANCED_FACE ( 'NONE', ( #153 ), #314, .T. ) ;
#71 = VERTEX_POINT ( 'NONE', #308 ) ;
#72 = ORIENTED_EDGE ( 'NONE', *, *, #17, .F. ) ;
#73 = VERTEX_POINT ( 'NONE', #130 ) ;
#74 =( LENGTH_UNIT ( ) NAMED_UNIT ( * ) SI_UNIT ( .MILLI., .METRE. ) );
#75 = FACE_OUTER_BOUND ( 'NONE', #286, .T. ) ;
#76 = EDGE_LOOP ( 'NONE', ( #159, #126 ) ) ;
#77 = EDGE_LOOP ( 'NONE', ( #340, #185 ) ) ;
#78 = EDGE_LOOP ( 'NONE', ( #328, #113, #48, #90 ) ) ;
#79 = ORIENTED_EDGE ( 'NONE', *, *, #201, .T. ) ;
#80 = UNCERTAINTY_MEASURE_WITH_UNIT (LENGTH_MEASURE( 1.000000000000000100E-005 ), #301, 'distance_accuracy_value', 'NONE');
#81 = DIRECTION ( 'NONE',  ( 0.0000000000000000000, 0.0000000000000000000, 1.000000000000000000 ) ) ;
#82 = ORIENTED_EDGE ( 'NONE', *, *, #24, .F. ) ;
#83 = EDGE_CURVE ( 'NONE', #16, #322, #29, .T. ) ;
#84 =( LENGTH_UNIT ( ) NAMED_UNIT ( * ) SI_UNIT ( .MILLI., .METRE. ) );
#85 = EDGE_CURVE ( 'NONE', #339, #54, #110, .T. ) ;
#86 = ORIENTED_EDGE ( 'NONE', *, *, #12, .T. ) ;
#87 = DIRECTION ( 'NONE',  ( 1.000000000000000000, 0.0000000000000000000, 0.0000000000000000000 ) ) ;
#88 = CARTESIAN_POINT ( 'NONE',  ( -24.24232602085180200, 95.73046134885069600, 0.0000000000000000000 ) ) ;
#89 = DIRECTION ( 'NONE',  ( 0.0000000000000000000, 1.000000000000000000, 0.0000000000000000000 ) ) ;
#90 = ORIENTED_EDGE ( 'NONE', *, *, #51, .F. ) ;
#91 = ORIENTED_EDGE ( 'NONE', *, *, #10, .F. ) ;
#92 = CARTESIAN_POINT ( 'NONE',  ( -26.24232602085180200, 82.44825923593209900, 2.449293598294705900E-016 ) ) ;
#93 = CARTESIAN_POINT ( 'NONE',  ( -42.24232602085180600, 82.44825923593209900, 0.0000000000000000000 ) ) ;
#94 = AXIS2_PLACEMENT_3D ( 'NONE', #36, #67, #63 ) ;
#95 = VERTEX_POINT ( 'NONE', #92 ) ;
#96 = CARTESIAN_POINT ( 'NONE',  ( -25.04025342663539900, 103.7304613488509900, 0.0000000000000000000 ) ) ;
#97 = EDGE_CURVE ( 'NONE', #191, #99, #342, .T. ) ;
#98 = VERTEX_POINT ( 'NONE', #64 ) ;
#99 = VERTEX_POINT ( 'NONE', #28 ) ;
#100 = ORIENTED_EDGE ( 'NONE', *, *, #196, .T. ) ;
#101 = FACE_OUTER_BOUND ( 'NONE', #14, .T. ) ;
#102 = CARTESIAN_POINT ( 'NONE',  ( -24.24232602085180200, 100.1304613488510100, 0.0000000000000000000 ) ) ;
#103 = CIRCLE ( 'NONE', #45, 20.00000000000000400 ) ;
#104 = CIRCLE ( 'NONE', #199, 2.000000000000000000 ) ;
#105 = CIRCLE ( 'NONE', #205, 5.000000000000000000 ) ;
#106 = ORIENTED_EDGE ( 'NONE', *, *, #85, .T. ) ;
#107 = CARTESIAN_POINT ( 'NONE',  ( -24.24232602085180200, 95.73046134885069600, -2.000000000000000000 ) ) ;
#108 = VERTEX_POINT ( 'NONE', #112 ) ;
#109 = ORIENTED_EDGE ( 'NONE', *, *, #57, .T. ) ;
#110 = LINE ( 'NONE', #134, #262 ) ;
#111 = DIRECTION ( 'NONE',  ( -0.0000000000000000000, 1.000000000000000000, 0.0000000000000000000 ) ) ;
#112 = CARTESIAN_POINT ( 'NONE',  ( -24.24232602085180200, 94.23046134885069600, 2.000000000000000000 ) ) ;
#113 = ORIENTED_EDGE ( 'NONE', *, *, #97, .T. ) ;
#114 = ORIENTED_EDGE ( 'NONE', *, *, #24, .T. ) ;
#115 = TOROIDAL_SURFACE ( 'NONE', #216, -18.00000000000000400, 20.00000000000000000 ) ;
#116 = ORIENTED_EDGE ( 'NONE', *, *, #47, .F. ) ;
#117 = DIRECTION ( 'NONE',  ( -0.0000000000000000000, 1.000000000000000000, 0.0000000000000000000 ) ) ;
#118 = FACE_BOUND ( 'NONE', #248, .T. ) ;
#119 = AXIS2_PLACEMENT_3D ( 'NONE', #253, #193, #121 ) ;
#120 = SURFACE_STYLE_USAGE ( .BOTH. , #282 ) ;
#121 = DIRECTION ( 'NONE',  ( 0.0000000000000000000, 0.0000000000000000000, 1.000000000000000000 ) ) ;
#122 = ORIENTED_EDGE ( 'NONE', *, *, #85, .F. ) ;
#123 = ORIENTED_EDGE ( 'NONE', *, *, #192, .F. ) ;
#124 = AXIS2_PLACEMENT_3D ( 'NONE', #9, #34, #3 ) ;
#125 = CARTESIAN_POINT ( 'NONE',  ( -24.24232602085180200, 95.73046134885069600, -5.000000000000000000 ) ) ;
#126 = ORIENTED_EDGE ( 'NONE', *, *, #51, .T. ) ;
#127 = DIRECTION ( 'NONE',  ( 0.0000000000000000000, 0.0000000000000000000, 1.000000000000000000 ) ) ;
#128 = ORIENTED_EDGE ( 'NONE', *, *, #192, .T. ) ;
#129 = VECTOR ( 'NONE', #341, 1000.000000000000000 ) ;
#130 = CARTESIAN_POINT ( 'NONE',  ( -24.24232602085180200, 73.73046134885076700, -1.102182119232617900E-015 ) ) ;
#131 = CARTESIAN_POINT ( 'NONE',  ( -24.24232602085180200, 95.73046134885069600, 0.0000000000000000000 ) ) ;
#132 = DIRECTION ( 'NONE',  ( 1.000000000000000000, 0.0000000000000000000, 0.0000000000000000000 ) ) ;
#133 = DIRECTION ( 'NONE',  ( -0.0000000000000000000, 1.000000000000000000, 0.0000000000000000000 ) ) ;
#134 = CARTESIAN_POINT ( 'NONE',  ( -24.24232602085180200, 94.98046134885069600, 5.000000000000000000 ) ) ;
#135 = CARTESIAN_POINT ( 'NONE',  ( -28.49232602085179900, 94.23046134885069600, 0.0000000000000000000 ) ) ;
#136 = EDGE_LOOP ( 'NONE', ( #123, #37, #106, #86 ) ) ;
#137 = DIRECTION ( 'NONE',  ( 0.0000000000000000000, 0.0000000000000000000, 1.000000000000000000 ) ) ;
#138 = CIRCLE ( 'NONE', #212, 2.000000000000000000 ) ;
#139 = EDGE_LOOP ( 'NONE', ( #276, #11, #161, #305, #109 ) ) ;
#140 = CARTESIAN_POINT ( 'NONE',  ( -24.24232602085180200, 88.58936029239140500, 2.000000000000000000 ) ) ;
#141 = PLANE ( 'NONE',  #319 ) ;
#142 = FACE_OUTER_BOUND ( 'NONE', #337, .T. ) ;
#143 = CIRCLE ( 'NONE', #215, 2.000000000000000000 ) ;
#144 = SURFACE_STYLE_FILL_AREA ( #293 ) ;
#145 = PRODUCT_DEFINITION_SHAPE ( 'NONE', 'NONE',  #246 ) ;
#146 = DIRECTION ( 'NONE',  ( 0.0000000000000000000, 1.000000000000000000, 0.0000000000000000000 ) ) ;
#147 = CARTESIAN_POINT ( 'NONE',  ( -24.24232602085180200, 82.44825923593209900, 2.000000000000000000 ) ) ;
#148 = EDGE_LOOP ( 'NONE', ( #39, #116, #68, #33 ) ) ;
#149 = CARTESIAN_POINT ( 'NONE',  ( -24.24232602085180200, 100.1304613488510100, -2.000000000000000000 ) ) ;
#150 = APPLICATION_PROTOCOL_DEFINITION ( 'draft international standard', 'automotive_design', 1998, #60 ) ;
#151 = CARTESIAN_POINT ( 'NONE',  ( -24.24232602085180200, 94.23046134885069600, 0.0000000000000000000 ) ) ;
#152 = DIRECTION ( 'NONE',  ( 0.0000000000000000000, 1.000000000000000000, 0.0000000000000000000 ) ) ;
#153 = FACE_OUTER_BOUND ( 'NONE', #76, .T. ) ;
#154 = DIRECTION ( 'NONE',  ( -0.0000000000000000000, 1.000000000000000000, 0.0000000000000000000 ) ) ;
#155 = AXIS2_PLACEMENT_3D ( 'NONE', #173, #152, #226 ) ;
#156 = COLOUR_RGB ( '',0.5999999999999999800, 0.5999999999999999800, 0.5999999999999999800 ) ;
#157 = DIRECTION ( 'NONE',  ( -0.0000000000000000000, 1.000000000000000000, 0.0000000000000000000 ) ) ;
#158 = DIRECTION ( 'NONE',  ( 0.0000000000000000000, 0.0000000000000000000, 1.000000000000000000 ) ) ;
#159 = ORIENTED_EDGE ( 'NONE', *, *, #197, .T. ) ;
#160 = PRODUCT_CONTEXT ( 'NONE', #50, 'mechanical' ) ;
#161 = ORIENTED_EDGE ( 'NONE', *, *, #213, .F. ) ;
#162 = DIRECTION ( 'NONE',  ( 0.0000000000000000000, -0.0000000000000000000, 1.000000000000000000 ) ) ;
#163 = VERTEX_POINT ( 'NONE', #147 ) ;
#164 = DIRECTION ( 'NONE',  ( 1.224646799147353200E-016, 0.0000000000000000000, 1.000000000000000000 ) ) ;
#165 = CYLINDRICAL_SURFACE ( 'NONE', #228, 2.000000000000000000 ) ;
#166 = ORIENTED_EDGE ( 'NONE', *, *, #97, .F. ) ;
#167 = CARTESIAN_POINT ( 'NONE',  ( -28.49232602085179900, 95.73046134885069600, 0.0000000000000000000 ) ) ;
#168 = CARTESIAN_POINT ( 'NONE',  ( -24.24232602085180200, 82.44825923593209900, 0.0000000000000000000 ) ) ;
#169 = PLANE ( 'NONE',  #5 ) ;
#170 = PRODUCT ( '3105032', '3105032', '', ( #160 ) ) ;
#171 = CIRCLE ( 'NONE', #119, 2.000000000000000000 ) ;
#172 = ORIENTED_EDGE ( 'NONE', *, *, #83, .F. ) ;
#173 = CARTESIAN_POINT ( 'NONE',  ( -24.24232602085180200, 82.44825923593209900, 0.0000000000000000000 ) ) ;
#174 = FACE_OUTER_BOUND ( 'NONE', #136, .T. ) ;
#175 = CARTESIAN_POINT ( 'NONE',  ( -24.24232602085180200, 95.73046134885069600, 0.0000000000000000000 ) ) ;
#176 = DIRECTION ( 'NONE',  ( -0.0000000000000000000, -1.000000000000000000, -0.0000000000000000000 ) ) ;
#177 = DIRECTION ( 'NONE',  ( 0.0000000000000000000, 0.0000000000000000000, 1.000000000000000000 ) ) ;
#178 = DIRECTION ( 'NONE',  ( 0.0000000000000000000, 0.0000000000000000000, 1.000000000000000000 ) ) ;
#179 = DIRECTION ( 'NONE',  ( 0.0000000000000000000, -0.0000000000000000000, 1.000000000000000000 ) ) ;
#180 =( NAMED_UNIT ( * ) SI_UNIT ( $, .STERADIAN. ) SOLID_ANGLE_UNIT ( ) );
#181 = CARTESIAN_POINT ( 'NONE',  ( -24.24232602085180200, 82.44825923593209900, 0.0000000000000000000 ) ) ;
#182 = DIRECTION ( 'NONE',  ( 0.0000000000000000000, 1.000000000000000000, 0.0000000000000000000 ) ) ;
#183 = DIRECTION ( 'NONE',  ( 0.0000000000000000000, 0.0000000000000000000, 1.000000000000000000 ) ) ;
#184 = SURFACE_STYLE_FILL_AREA ( #52 ) ;
#185 = ORIENTED_EDGE ( 'NONE', *, *, #343, .F. ) ;
#186 = AXIS2_PLACEMENT_3D ( 'NONE', #151, #154, #158 ) ;
#187 = CARTESIAN_POINT ( 'NONE',  ( -24.24232602085180200, 82.44825923593209900, 0.0000000000000000000 ) ) ;
#188 = STYLED_ITEM ( 'NONE', ( #251 ), #310 ) ;
#189 = AXIS2_PLACEMENT_3D ( 'NONE', #281, #265, #2 ) ;
#190 = DIRECTION ( 'NONE',  ( 1.000000000000000000, 0.0000000000000000000, 0.0000000000000000000 ) ) ;
#191 = VERTEX_POINT ( 'NONE', #107 ) ;
#192 = EDGE_CURVE ( 'NONE', #56, #258, #278, .T. ) ;
#193 = DIRECTION ( 'NONE',  ( -0.0000000000000000000, 1.000000000000000000, 0.0000000000000000000 ) ) ;
#194 = ORIENTED_EDGE ( 'NONE', *, *, #57, .F. ) ;
#195 = DIRECTION ( 'NONE',  ( 0.0000000000000000000, -1.000000000000000000, 0.0000000000000000000 ) ) ;
#196 = EDGE_CURVE ( 'NONE', #339, #56, #105, .T. ) ;
#197 = EDGE_CURVE ( 'NONE', #98, #71, #255, .T. ) ;
#198 = EDGE_CURVE ( 'NONE', #69, #16, #335, .T. ) ;
#199 = AXIS2_PLACEMENT_3D ( 'NONE', #88, #117, #81 ) ;
#200 = LINE ( 'NONE', #149, #298 ) ;
#201 = EDGE_CURVE ( 'NONE', #95, #73, #345, .T. ) ;
#202 = EDGE_CURVE ( 'NONE', #163, #108, #237, .T. ) ;
#203 = AXIS2_PLACEMENT_3D ( 'NONE', #311, #344, #288 ) ;
#204 = APPLICATION_PROTOCOL_DEFINITION ( 'draft international standard', 'automotive_design', 1998, #50 ) ;
#205 = AXIS2_PLACEMENT_3D ( 'NONE', #252, #7, #338 ) ;
#206 = DIRECTION ( 'NONE',  ( 0.0000000000000000000, 1.000000000000000000, 0.0000000000000000000 ) ) ;
#207 = CARTESIAN_POINT ( 'NONE',  ( 0.0000000000000000000, 0.0000000000000000000, 0.0000000000000000000 ) ) ;
#208 = AXIS2_PLACEMENT_3D ( 'NONE', #292, #295, #299 ) ;
#209 = AXIS2_PLACEMENT_3D ( 'NONE', #131, #111, #137 ) ;
#210 = CARTESIAN_POINT ( 'NONE',  ( -24.24232602085180200, 88.58936029239140500, 0.0000000000000000000 ) ) ;
#211 = PRESENTATION_STYLE_ASSIGNMENT (( #120 ) ) ;
#212 = AXIS2_PLACEMENT_3D ( 'NONE', #181, #182, #183 ) ;
#213 = EDGE_CURVE ( 'NONE', #108, #322, #171, .T. ) ;
#214 = DIRECTION ( 'NONE',  ( 0.0000000000000000000, 0.0000000000000000000, 1.000000000000000000 ) ) ;
#215 = AXIS2_PLACEMENT_3D ( 'NONE', #236, #241, #244 ) ;
#216 = AXIS2_PLACEMENT_3D ( 'NONE', #168, #263, #132 ) ;
#217 = CARTESIAN_POINT ( 'NONE',  ( -24.24232602085180200, 94.98046134885069600, 0.0000000000000000000 ) ) ;
#218 = DIRECTION ( 'NONE',  ( 0.0000000000000000000, 0.0000000000000000000, 1.000000000000000000 ) ) ;
#219 = AXIS2_PLACEMENT_3D ( 'NONE', #187, #195, #190 ) ;
#220 = PRESENTATION_LAYER_ASSIGNMENT (  '', '', ( #188 ) ) ;
#221 = AXIS2_PLACEMENT_3D ( 'NONE', #217, #256, #178 ) ;
#222 = AXIS2_PLACEMENT_3D ( 'NONE', #102, #270, #218 ) ;
#223 = MECHANICAL_DESIGN_GEOMETRIC_PRESENTATION_REPRESENTATION (  '', ( #188 ), #224 ) ;
#224 =( GEOMETRIC_REPRESENTATION_CONTEXT ( 3 ) GLOBAL_UNCERTAINTY_ASSIGNED_CONTEXT ( ( #80 ) ) GLOBAL_UNIT_ASSIGNED_CONTEXT ( ( #301, #304, #313 ) ) REPRESENTATION_CONTEXT ( 'NONE', 'WORKASPACE' ) );
#225 =( GEOMETRIC_REPRESENTATION_CONTEXT ( 3 ) GLOBAL_UNCERTAINTY_ASSIGNED_CONTEXT ( ( #267 ) ) GLOBAL_UNIT_ASSIGNED_CONTEXT ( ( #74, #260, #180 ) ) REPRESENTATION_CONTEXT ( 'NONE', 'WORKASPACE' ) );
#226 = DIRECTION ( 'NONE',  ( 0.0000000000000000000, 0.0000000000000000000, 1.000000000000000000 ) ) ;
#227 = AXIS2_PLACEMENT_3D ( 'NONE', #325, #332, #331 ) ;
#228 = AXIS2_PLACEMENT_3D ( 'NONE', #315, #275, #127 ) ;
#229 = FACE_OUTER_BOUND ( 'NONE', #139, .T. ) ;
#230 = CYLINDRICAL_SURFACE ( 'NONE', #221, 5.000000000000000000 ) ;
#231 = ADVANCED_FACE ( 'NONE', ( #75 ), #250, .T. ) ;
#232 = STYLED_ITEM ( 'NONE', ( #211 ), #266 ) ;
#233 = PRESENTATION_LAYER_ASSIGNMENT (  '', '', ( #232 ) ) ;
#234 = MECHANICAL_DESIGN_GEOMETRIC_PRESENTATION_REPRESENTATION (  '', ( #232 ), #238 ) ;
#235 = ADVANCED_FACE ( 'NONE', ( #174 ), #46, .T. ) ;
#236 = CARTESIAN_POINT ( 'NONE',  ( -24.24232602085180200, 103.7304613488509900, 0.0000000000000000000 ) ) ;
#237 = LINE ( 'NONE', #140, #129 ) ;
#238 =( GEOMETRIC_REPRESENTATION_CONTEXT ( 3 ) GLOBAL_UNCERTAINTY_ASSIGNED_CONTEXT ( ( #261 ) ) GLOBAL_UNIT_ASSIGNED_CONTEXT ( ( #84, #18, #26 ) ) REPRESENTATION_CONTEXT ( 'NONE', 'WORKASPACE' ) );
#239 = ADVANCED_FACE ( 'NONE', ( #41, #317 ), #141, .F. ) ;
#240 = ADVANCED_FACE ( 'NONE', ( #118, #336 ), #169, .T. ) ;
#241 = DIRECTION ( 'NONE',  ( -0.0000000000000000000, 1.000000000000000000, 0.0000000000000000000 ) ) ;
#242 = CIRCLE ( 'NONE', #25, 5.000000000000000000 ) ;
#243 = CIRCLE ( 'NONE', #186, 2.000000000000000000 ) ;
#244 = DIRECTION ( 'NONE',  ( 0.0000000000000000000, 0.0000000000000000000, 1.000000000000000000 ) ) ;
#245 = AXIS2_PLACEMENT_3D ( 'NONE', #207, #58, #87 ) ;
#246 = PRODUCT_DEFINITION ( 'UNKNOWN', '', #247, #38 ) ;
#247 = PRODUCT_DEFINITION_FORMATION_WITH_SPECIFIED_SOURCE ( 'ANY', '', #170, .NOT_KNOWN. ) ;
#248 = EDGE_LOOP ( 'NONE', ( #35, #166 ) ) ;
#249 = PRODUCT_RELATED_PRODUCT_CATEGORY ( 'part', '', ( #170 ) ) ;
#250 = CYLINDRICAL_SURFACE ( 'NONE', #32, 2.000000000000000000 ) ;
#251 = PRESENTATION_STYLE_ASSIGNMENT (( #287 ) ) ;
#252 = CARTESIAN_POINT ( 'NONE',  ( -24.24232602085180200, 94.23046134885069600, 0.0000000000000000000 ) ) ;
#253 = CARTESIAN_POINT ( 'NONE',  ( -24.24232602085180200, 94.23046134885069600, 0.0000000000000000000 ) ) ;
#254 = ADVANCED_FACE ( 'NONE', ( #142 ), #115, .T. ) ;
#255 = CIRCLE ( 'NONE', #203, 2.000000000000000000 ) ;
#256 = DIRECTION ( 'NONE',  ( 0.0000000000000000000, 1.000000000000000000, 0.0000000000000000000 ) ) ;
#257 = ORIENTED_EDGE ( 'NONE', *, *, #40, .T. ) ;
#258 = VERTEX_POINT ( 'NONE', #125 ) ;
#259 = ADVANCED_FACE ( 'NONE', ( #306 ), #303, .T. ) ;
#260 =( NAMED_UNIT ( * ) PLANE_ANGLE_UNIT ( ) SI_UNIT ( $, .RADIAN. ) );
#261 = UNCERTAINTY_MEASURE_WITH_UNIT (LENGTH_MEASURE( 1.000000000000000100E-005 ), #84, 'distance_accuracy_value', 'NONE');
#262 = VECTOR ( 'NONE', #89, 1000.000000000000000 ) ;
#263 = DIRECTION ( 'NONE',  ( 0.0000000000000000000, -1.000000000000000000, 0.0000000000000000000 ) ) ;
#264 = FILL_AREA_STYLE_COLOUR ( '', #296 ) ;
#265 = DIRECTION ( 'NONE',  ( 0.0000000000000000000, 1.000000000000000000, 0.0000000000000000000 ) ) ;
#266 = ADVANCED_BREP_SHAPE_REPRESENTATION ( '3105032', ( #310, #245 ), #225 ) ;
#267 = UNCERTAINTY_MEASURE_WITH_UNIT (LENGTH_MEASURE( 1.000000000000000100E-005 ), #74, 'distance_accuracy_value', 'NONE');
#268 = CYLINDRICAL_SURFACE ( 'NONE', #59, 2.000000000000000000 ) ;
#269 = CARTESIAN_POINT ( 'NONE',  ( -24.24232602085180200, 95.73046134885069600, 5.000000000000000000 ) ) ;
#270 = DIRECTION ( 'NONE',  ( 0.0000000000000000000, 1.000000000000000000, 0.0000000000000000000 ) ) ;
#271 = CARTESIAN_POINT ( 'NONE',  ( -24.24232602085180200, 94.23046134885069600, -5.000000000000000000 ) ) ;
#272 = EDGE_LOOP ( 'NONE', ( #323, #114 ) ) ;
#273 = ORIENTED_EDGE ( 'NONE', *, *, #12, .F. ) ;
#274 = DIRECTION ( 'NONE',  ( 0.0000000000000000000, 1.000000000000000000, 0.0000000000000000000 ) ) ;
#275 = DIRECTION ( 'NONE',  ( 0.0000000000000000000, 1.000000000000000000, 0.0000000000000000000 ) ) ;
#276 = ORIENTED_EDGE ( 'NONE', *, *, #198, .T. ) ;
#277 = EDGE_LOOP ( 'NONE', ( #273, #31 ) ) ;
#278 = LINE ( 'NONE', #23, #326 ) ;
#279 = ADVANCED_FACE ( 'NONE', ( #20 ), #230, .T. ) ;
#280 = ADVANCED_FACE ( 'NONE', ( #65 ), #21, .T. ) ;
#281 = CARTESIAN_POINT ( 'NONE',  ( -24.24232602085180200, 94.98046134885069600, 0.0000000000000000000 ) ) ;
#282 = SURFACE_SIDE_STYLE ('',( #184 ) ) ;
#283 = CARTESIAN_POINT ( 'NONE',  ( -24.24232602085180200, 94.23046134885069600, 5.000000000000000000 ) ) ;
#284 = CIRCLE ( 'NONE', #227, 5.000000000000000000 ) ;
#285 = LINE ( 'NONE', #290, #300 ) ;
#286 = EDGE_LOOP ( 'NONE', ( #172, #302, #346, #49, #82 ) ) ;
#287 = SURFACE_STYLE_USAGE ( .BOTH. , #294 ) ;
#288 = DIRECTION ( 'NONE',  ( 0.0000000000000000000, 0.0000000000000000000, 1.000000000000000000 ) ) ;
#289 = DIRECTION ( 'NONE',  ( 0.0000000000000000000, 0.0000000000000000000, 1.000000000000000000 ) ) ;
#290 = CARTESIAN_POINT ( 'NONE',  ( -24.24232602085180200, 100.1304613488510100, 2.000000000000000000 ) ) ;
#291 = VECTOR ( 'NONE', #22, 1000.000000000000000 ) ;
#292 = CARTESIAN_POINT ( 'NONE',  ( -24.24232602085180200, 82.44825923593209900, 0.0000000000000000000 ) ) ;
#293 = FILL_AREA_STYLE ('',( #264 ) ) ;
#294 = SURFACE_SIDE_STYLE ('',( #144 ) ) ;
#295 = DIRECTION ( 'NONE',  ( 0.0000000000000000000, 1.000000000000000000, 0.0000000000000000000 ) ) ;
#296 = COLOUR_RGB ( '',0.5999999999999999800, 0.5999999999999999800, 0.5999999999999999800 ) ;
#297 = CARTESIAN_POINT ( 'NONE',  ( -24.24232602085180200, 88.58936029239140500, 0.0000000000000000000 ) ) ;
#298 = VECTOR ( 'NONE', #30, 1000.000000000000000 ) ;
#299 = DIRECTION ( 'NONE',  ( 0.0000000000000000000, 0.0000000000000000000, 1.000000000000000000 ) ) ;
#300 = VECTOR ( 'NONE', #274, 1000.000000000000000 ) ;
#301 =( LENGTH_UNIT ( ) NAMED_UNIT ( * ) SI_UNIT ( .MILLI., .METRE. ) );
#302 = ORIENTED_EDGE ( 'NONE', *, *, #47, .T. ) ;
#303 = TOROIDAL_SURFACE ( 'NONE', #219, -18.00000000000000400, 20.00000000000000000 ) ;
#304 =( NAMED_UNIT ( * ) PLANE_ANGLE_UNIT ( ) SI_UNIT ( $, .RADIAN. ) );
#305 = ORIENTED_EDGE ( 'NONE', *, *, #202, .F. ) ;
#306 = FACE_OUTER_BOUND ( 'NONE', #148, .T. ) ;
#307 = ORIENTED_EDGE ( 'NONE', *, *, #62, .F. ) ;
#308 = CARTESIAN_POINT ( 'NONE',  ( -24.24232602085180200, 103.7304613488509900, -2.000000000000000000 ) ) ;
#309 = DIRECTION ( 'NONE',  ( 0.0000000000000000000, 1.000000000000000000, 0.0000000000000000000 ) ) ;
#310 = MANIFOLD_SOLID_BREP ( 'DeleteFace1', #6 ) ;
#311 = CARTESIAN_POINT ( 'NONE',  ( -24.24232602085180200, 103.7304613488509900, 0.0000000000000000000 ) ) ;
#312 = ADVANCED_FACE ( 'NONE', ( #101 ), #165, .T. ) ;
#313 =( NAMED_UNIT ( * ) SI_UNIT ( $, .STERADIAN. ) SOLID_ANGLE_UNIT ( ) );
#314 = PLANE ( 'NONE',  #19 ) ;
#315 = CARTESIAN_POINT ( 'NONE',  ( -24.24232602085180200, 100.1304613488510100, 0.0000000000000000000 ) ) ;
#316 = CIRCLE ( 'NONE', #208, 2.000000000000000000 ) ;
#317 = FACE_BOUND ( 'NONE', #272, .T. ) ;
#318 = CARTESIAN_POINT ( 'NONE',  ( -22.24232602085179900, 82.44825923593209900, 0.0000000000000000000 ) ) ;
#319 = AXIS2_PLACEMENT_3D ( 'NONE', #135, #133, #162 ) ;
#320 = FILL_AREA_STYLE_COLOUR ( '', #156 ) ;
#321 = DIRECTION ( 'NONE',  ( -0.0000000000000000000, 1.000000000000000000, 0.0000000000000000000 ) ) ;
#322 = VERTEX_POINT ( 'NONE', #329 ) ;
#323 = ORIENTED_EDGE ( 'NONE', *, *, #213, .T. ) ;
#324 = DIRECTION ( 'NONE',  ( 0.0000000000000000000, -0.0000000000000000000, 1.000000000000000000 ) ) ;
#325 = CARTESIAN_POINT ( 'NONE',  ( -24.24232602085180200, 94.23046134885069600, 0.0000000000000000000 ) ) ;
#326 = VECTOR ( 'NONE', #206, 1000.000000000000000 ) ;
#327 = CARTESIAN_POINT ( 'NONE',  ( -6.242326020851798800, 82.44825923593209900, -2.204364238465235800E-015 ) ) ;
#328 = ORIENTED_EDGE ( 'NONE', *, *, #40, .F. ) ;
#329 = CARTESIAN_POINT ( 'NONE',  ( -24.24232602085180200, 94.23046134885069600, -2.000000000000000000 ) ) ;
#330 = CIRCLE ( 'NONE', #124, 2.000000000000000000 ) ;
#331 = DIRECTION ( 'NONE',  ( 0.0000000000000000000, 0.0000000000000000000, 1.000000000000000000 ) ) ;
#332 = DIRECTION ( 'NONE',  ( 0.0000000000000000000, 1.000000000000000000, 0.0000000000000000000 ) ) ;
#333 = DIRECTION ( 'NONE',  ( 1.000000000000000000, 0.0000000000000000000, -1.224646799147353500E-016 ) ) ;
#334 = CIRCLE ( 'NONE', #94, 5.000000000000000000 ) ;
#335 = CIRCLE ( 'NONE', #155, 2.000000000000000000 ) ;
#336 = FACE_OUTER_BOUND ( 'NONE', #277, .T. ) ;
#337 = EDGE_LOOP ( 'NONE', ( #91, #79, #72, #194 ) ) ;
#338 = DIRECTION ( 'NONE',  ( 0.0000000000000000000, 0.0000000000000000000, 1.000000000000000000 ) ) ;
#339 = VERTEX_POINT ( 'NONE', #283 ) ;
#340 = ORIENTED_EDGE ( 'NONE', *, *, #196, .F. ) ;
#341 = DIRECTION ( 'NONE',  ( 0.0000000000000000000, 1.000000000000000000, 0.0000000000000000000 ) ) ;
#342 = CIRCLE ( 'NONE', #209, 2.000000000000000000 ) ;
#343 = EDGE_CURVE ( 'NONE', #56, #339, #284, .T. ) ;
#344 = DIRECTION ( 'NONE',  ( -0.0000000000000000000, 1.000000000000000000, 0.0000000000000000000 ) ) ;
#345 = CIRCLE ( 'NONE', #27, 20.00000000000000000 ) ;
#346 = ORIENTED_EDGE ( 'NONE', *, *, #10, .T. ) ;
ENDSEC;
END-ISO-10303-21;
