ISO-10303-21;
HEADER;
FILE_DESCRIPTION (( 'STEP AP214' ),
    '1' );
FILE_NAME ('2088843.stp',
    '2019-03-13T12:20:25',
    ( '' ),
    ( '' ),
    'SwSTEP 2.0',
    'SolidWorks 2018',
    '' );
FILE_SCHEMA (( 'AUTOMOTIVE_DESIGN' ));
ENDSEC;

DATA;
#1 = CARTESIAN_POINT ( 'NONE',  ( 0.0000000000000000000, 0.0000000000000000000, 0.0000000000000000000 ) ) ;
#2 = FILL_AREA_STYLE ('',( #5 ) ) ;
#3 = DIRECTION ( 'NONE',  ( -0.0000000000000000000, 1.000000000000000000, -0.0000000000000000000 ) ) ;
#4 = PRODUCT ( '2088843', '2088843', '', ( #43 ) ) ;
#5 = FILL_AREA_STYLE_COLOUR ( '', #37 ) ;
#6 = APPLICATION_CONTEXT ( 'automotive_design' ) ;
#7 = CARTESIAN_POINT ( 'NONE',  ( 0.0000000000000000000, 0.0000000000000000000, 11.50000000000000178 ) ) ;
#8 = CARTESIAN_POINT ( 'NONE',  ( 0.0000000000000000000, 0.0000000000000000000, 10.75000000000000000 ) ) ;
#9 = SURFACE_STYLE_USAGE ( .BOTH. , #82 ) ;
#10 = DIRECTION ( 'NONE',  ( -1.000000000000000000, 0.0000000000000000000, 0.0000000000000000000 ) ) ;
#11 = ORIENTED_EDGE ( 'NONE', *, *, #120, .T. ) ;
#12 =( NAMED_UNIT ( * ) PLANE_ANGLE_UNIT ( ) SI_UNIT ( $, .RADIAN. ) );
#13 =( LENGTH_UNIT ( ) NAMED_UNIT ( * ) SI_UNIT ( .MILLI., .METRE. ) );
#14 = CARTESIAN_POINT ( 'NONE',  ( 1.316495309083404815E-15, 0.0000000000000000000, -10.75000000000000000 ) ) ;
#15 =( NAMED_UNIT ( * ) SI_UNIT ( $, .STERADIAN. ) SOLID_ANGLE_UNIT ( ) );
#16 = DIRECTION ( 'NONE',  ( 1.224646799147351975E-16, 0.0000000000000000000, -1.000000000000000000 ) ) ;
#17 = DIRECTION ( 'NONE',  ( -0.0000000000000000000, 1.000000000000000000, -0.0000000000000000000 ) ) ;
#18 = ADVANCED_FACE ( 'NONE', ( #83 ), #140, .T. ) ;
#19 = CARTESIAN_POINT ( 'NONE',  ( 0.0000000000000000000, -9.184850993605149670E-17, 10.00000000000000000 ) ) ;
#20 = DIRECTION ( 'NONE',  ( 0.0000000000000000000, 0.0000000000000000000, 1.000000000000000000 ) ) ;
#21 = DIRECTION ( 'NONE',  ( -0.0000000000000000000, 1.000000000000000000, -0.0000000000000000000 ) ) ;
#22 = CARTESIAN_POINT ( 'NONE',  ( 0.0000000000000000000, 0.0000000000000000000, 10.75000000000000000 ) ) ;
#23 = DIRECTION ( 'NONE',  ( 0.0000000000000000000, 0.0000000000000000000, 1.000000000000000000 ) ) ;
#24 = CARTESIAN_POINT ( 'NONE',  ( 0.0000000000000000000, 0.0000000000000000000, 0.0000000000000000000 ) ) ;
#25 = CARTESIAN_POINT ( 'NONE',  ( 0.0000000000000000000, -9.184850993605153368E-17, 0.0000000000000000000 ) ) ;
#26 = APPLICATION_PROTOCOL_DEFINITION ( 'draft international standard', 'automotive_design', 1998, #42 ) ;
#27 = CARTESIAN_POINT ( 'NONE',  ( 0.0000000000000000000, -9.184850993605153368E-17, 0.0000000000000000000 ) ) ;
#28 = DIRECTION ( 'NONE',  ( 1.000000000000000000, 0.0000000000000000000, 1.224646799147353207E-16 ) ) ;
#29 = DIRECTION ( 'NONE',  ( 1.224646799147351975E-16, 0.0000000000000000000, -1.000000000000000000 ) ) ;
#30 = DIRECTION ( 'NONE',  ( -0.0000000000000000000, 1.000000000000000000, -0.0000000000000000000 ) ) ;
#31 = DIRECTION ( 'NONE',  ( -1.000000000000000000, 0.0000000000000000000, 0.0000000000000000000 ) ) ;
#32 = DIRECTION ( 'NONE',  ( -0.0000000000000000000, 1.000000000000000000, -0.0000000000000000000 ) ) ;
#33 = CARTESIAN_POINT ( 'NONE',  ( 0.0000000000000000000, 0.0000000000000000000, 0.0000000000000000000 ) ) ;
#34 = ADVANCED_FACE ( 'NONE', ( #101 ), #107, .T. ) ;
#35 = SHAPE_DEFINITION_REPRESENTATION ( #150, #75 ) ;
#36 = DIRECTION ( 'NONE',  ( 0.0000000000000000000, 0.0000000000000000000, 1.000000000000000000 ) ) ;
#37 = COLOUR_RGB ( '',0.7529411764705882248, 0.7529411764705882248, 0.7529411764705882248 ) ;
#38 = DIRECTION ( 'NONE',  ( 0.0000000000000000000, 0.0000000000000000000, 1.000000000000000000 ) ) ;
#39 = SURFACE_STYLE_FILL_AREA ( #2 ) ;
#40 = PRODUCT_DEFINITION_CONTEXT ( 'detailed design', #42, 'design' ) ;
#41 = CARTESIAN_POINT ( 'NONE',  ( 0.0000000000000000000, 0.0000000000000000000, 0.0000000000000000000 ) ) ;
#42 = APPLICATION_CONTEXT ( 'automotive_design' ) ;
#43 = PRODUCT_CONTEXT ( 'NONE', #6, 'mechanical' ) ;
#44 = DIRECTION ( 'NONE',  ( 0.0000000000000000000, 0.0000000000000000000, 1.000000000000000000 ) ) ;
#45 = PRESENTATION_STYLE_ASSIGNMENT (( #70 ) ) ;
#46 = TOROIDAL_SURFACE ( 'NONE', #67, 10.75000000000000000, 0.7500000000000003331 ) ;
#47 = CARTESIAN_POINT ( 'NONE',  ( 0.0000000000000000000, 0.0000000000000000000, 0.0000000000000000000 ) ) ;
#48 = EDGE_LOOP ( 'NONE', ( #155, #116, #142, #112 ) ) ;
#49 = DIRECTION ( 'NONE',  ( -0.0000000000000000000, 1.000000000000000000, -0.0000000000000000000 ) ) ;
#50 = DIRECTION ( 'NONE',  ( 1.000000000000000000, 0.0000000000000000000, 1.224646799147353207E-16 ) ) ;
#51 = UNCERTAINTY_MEASURE_WITH_UNIT (LENGTH_MEASURE( 1.000000000000000082E-05 ), #65, 'distance_accuracy_value', 'NONE');
#52 =( LENGTH_UNIT ( ) NAMED_UNIT ( * ) SI_UNIT ( .MILLI., .METRE. ) );
#53 = CARTESIAN_POINT ( 'NONE',  ( 1.316495309083404815E-15, 0.0000000000000000000, -10.75000000000000000 ) ) ;
#54 = DIRECTION ( 'NONE',  ( 0.0000000000000000000, 0.0000000000000000000, 1.000000000000000000 ) ) ;
#55 = DIRECTION ( 'NONE',  ( 0.0000000000000000000, 0.0000000000000000000, 1.000000000000000000 ) ) ;
#56 = CARTESIAN_POINT ( 'NONE',  ( 0.0000000000000000000, 0.0000000000000000000, 0.0000000000000000000 ) ) ;
#57 = VERTEX_POINT ( 'NONE', #77 ) ;
#58 = CARTESIAN_POINT ( 'NONE',  ( 1.224646799147353256E-15, -9.184850993605149670E-17, -10.00000000000000000 ) ) ;
#59 = DIRECTION ( 'NONE',  ( 1.000000000000000000, 0.0000000000000000000, 0.0000000000000000000 ) ) ;
#60 = DIRECTION ( 'NONE',  ( 0.0000000000000000000, 0.0000000000000000000, 1.000000000000000000 ) ) ;
#61 =( NAMED_UNIT ( * ) SI_UNIT ( $, .STERADIAN. ) SOLID_ANGLE_UNIT ( ) );
#62 =( NAMED_UNIT ( * ) PLANE_ANGLE_UNIT ( ) SI_UNIT ( $, .RADIAN. ) );
#63 = ORIENTED_EDGE ( 'NONE', *, *, #120, .F. ) ;
#64 = AXIS2_PLACEMENT_3D ( 'NONE', #33, #145, #124 ) ;
#65 =( LENGTH_UNIT ( ) NAMED_UNIT ( * ) SI_UNIT ( .MILLI., .METRE. ) );
#66 = MECHANICAL_DESIGN_GEOMETRIC_PRESENTATION_REPRESENTATION (  '', ( #129 ), #72 ) ;
#67 = AXIS2_PLACEMENT_3D ( 'NONE', #56, #30, #44 ) ;
#68 = MANIFOLD_SOLID_BREP ( 'Rotation1', #157 ) ;
#69 = AXIS2_PLACEMENT_3D ( 'NONE', #14, #50, #16 ) ;
#70 = SURFACE_STYLE_USAGE ( .BOTH. , #71 ) ;
#71 = SURFACE_SIDE_STYLE ('',( #39 ) ) ;
#72 =( GEOMETRIC_REPRESENTATION_CONTEXT ( 3 ) GLOBAL_UNCERTAINTY_ASSIGNED_CONTEXT ( ( #51 ) ) GLOBAL_UNIT_ASSIGNED_CONTEXT ( ( #65, #62, #61 ) ) REPRESENTATION_CONTEXT ( 'NONE', 'WORKASPACE' ) );
#73 = PRODUCT_RELATED_PRODUCT_CATEGORY ( 'part', '', ( #4 ) ) ;
#74 = EDGE_CURVE ( 'NONE', #118, #139, #111, .T. ) ;
#75 = ADVANCED_BREP_SHAPE_REPRESENTATION ( '2088843', ( #68, #128 ), #90 ) ;
#76 = AXIS2_PLACEMENT_3D ( 'NONE', #22, #31, #38 ) ;
#77 = CARTESIAN_POINT ( 'NONE',  ( 1.408343819019456176E-15, 0.0000000000000000000, -11.50000000000000178 ) ) ;
#78 = EDGE_LOOP ( 'NONE', ( #113, #79, #11, #156 ) ) ;
#79 = ORIENTED_EDGE ( 'NONE', *, *, #115, .T. ) ;
#80 = FILL_AREA_STYLE_COLOUR ( '', #108 ) ;
#81 = FILL_AREA_STYLE ('',( #80 ) ) ;
#82 = SURFACE_SIDE_STYLE ('',( #133 ) ) ;
#83 = FACE_OUTER_BOUND ( 'NONE', #48, .T. ) ;
#84 = UNCERTAINTY_MEASURE_WITH_UNIT (LENGTH_MEASURE( 1.000000000000000082E-05 ), #52, 'distance_accuracy_value', 'NONE');
#85 = EDGE_LOOP ( 'NONE', ( #63, #117, #152, #125 ) ) ;
#86 = APPLICATION_PROTOCOL_DEFINITION ( 'draft international standard', 'automotive_design', 1998, #6 ) ;
#87 = DIRECTION ( 'NONE',  ( 0.0000000000000000000, 0.0000000000000000000, 1.000000000000000000 ) ) ;
#88 = AXIS2_PLACEMENT_3D ( 'NONE', #24, #17, #36 ) ;
#89 = ORIENTED_EDGE ( 'NONE', *, *, #122, .T. ) ;
#90 =( GEOMETRIC_REPRESENTATION_CONTEXT ( 3 ) GLOBAL_UNCERTAINTY_ASSIGNED_CONTEXT ( ( #84 ) ) GLOBAL_UNIT_ASSIGNED_CONTEXT ( ( #52, #97, #96 ) ) REPRESENTATION_CONTEXT ( 'NONE', 'WORKASPACE' ) );
#91 = CARTESIAN_POINT ( 'NONE',  ( 0.0000000000000000000, 0.0000000000000000000, 0.0000000000000000000 ) ) ;
#92 = AXIS2_PLACEMENT_3D ( 'NONE', #41, #105, #54 ) ;
#93 = AXIS2_PLACEMENT_3D ( 'NONE', #53, #28, #29 ) ;
#94 =( GEOMETRIC_REPRESENTATION_CONTEXT ( 3 ) GLOBAL_UNCERTAINTY_ASSIGNED_CONTEXT ( ( #158 ) ) GLOBAL_UNIT_ASSIGNED_CONTEXT ( ( #13, #12, #15 ) ) REPRESENTATION_CONTEXT ( 'NONE', 'WORKASPACE' ) );
#95 = EDGE_CURVE ( 'NONE', #57, #118, #136, .T. ) ;
#96 =( NAMED_UNIT ( * ) SI_UNIT ( $, .STERADIAN. ) SOLID_ANGLE_UNIT ( ) );
#97 =( NAMED_UNIT ( * ) PLANE_ANGLE_UNIT ( ) SI_UNIT ( $, .RADIAN. ) );
#98 = AXIS2_PLACEMENT_3D ( 'NONE', #1, #3, #23 ) ;
#99 = AXIS2_PLACEMENT_3D ( 'NONE', #25, #49, #20 ) ;
#100 = MECHANICAL_DESIGN_GEOMETRIC_PRESENTATION_REPRESENTATION (  '', ( #134 ), #94 ) ;
#101 = FACE_OUTER_BOUND ( 'NONE', #85, .T. ) ;
#102 = AXIS2_PLACEMENT_3D ( 'NONE', #27, #32, #55 ) ;
#103 = DIRECTION ( 'NONE',  ( 0.0000000000000000000, 0.0000000000000000000, 1.000000000000000000 ) ) ;
#104 = PRESENTATION_LAYER_ASSIGNMENT (  '', '', ( #134 ) ) ;
#105 = DIRECTION ( 'NONE',  ( -0.0000000000000000000, 1.000000000000000000, -0.0000000000000000000 ) ) ;
#106 = FACE_OUTER_BOUND ( 'NONE', #78, .T. ) ;
#107 = TOROIDAL_SURFACE ( 'NONE', #130, 10.75000000000000000, 0.7500000000000003331 ) ;
#108 = COLOUR_RGB ( '',0.7529411764705882248, 0.7529411764705882248, 0.7529411764705882248 ) ;
#109 = ORIENTED_EDGE ( 'NONE', *, *, #95, .F. ) ;
#110 = AXIS2_PLACEMENT_3D ( 'NONE', #8, #10, #87 ) ;
#111 = CIRCLE ( 'NONE', #110, 0.7500000000000006661 ) ;
#112 = ORIENTED_EDGE ( 'NONE', *, *, #123, .T. ) ;
#113 = ORIENTED_EDGE ( 'NONE', *, *, #74, .F. ) ;
#114 = EDGE_CURVE ( 'NONE', #141, #139, #154, .T. ) ;
#115 = EDGE_CURVE ( 'NONE', #118, #57, #147, .T. ) ;
#116 = ORIENTED_EDGE ( 'NONE', *, *, #122, .F. ) ;
#117 = ORIENTED_EDGE ( 'NONE', *, *, #95, .T. ) ;
#118 = VERTEX_POINT ( 'NONE', #7 ) ;
#119 = ORIENTED_EDGE ( 'NONE', *, *, #123, .F. ) ;
#120 = EDGE_CURVE ( 'NONE', #57, #141, #135, .T. ) ;
#121 = EDGE_CURVE ( 'NONE', #139, #141, #138, .T. ) ;
#122 = EDGE_CURVE ( 'NONE', #139, #118, #149, .T. ) ;
#123 = EDGE_CURVE ( 'NONE', #141, #57, #148, .T. ) ;
#124 = DIRECTION ( 'NONE',  ( 0.0000000000000000000, 0.0000000000000000000, 1.000000000000000000 ) ) ;
#125 = ORIENTED_EDGE ( 'NONE', *, *, #114, .F. ) ;
#126 = PRESENTATION_LAYER_ASSIGNMENT (  '', '', ( #129 ) ) ;
#127 = PRODUCT_DEFINITION_FORMATION_WITH_SPECIFIED_SOURCE ( 'ANY', '', #4, .NOT_KNOWN. ) ;
#128 = AXIS2_PLACEMENT_3D ( 'NONE', #47, #60, #59 ) ;
#129 = STYLED_ITEM ( 'NONE', ( #45 ), #75 ) ;
#130 = AXIS2_PLACEMENT_3D ( 'NONE', #91, #21, #103 ) ;
#131 = ADVANCED_FACE ( 'NONE', ( #137 ), #151, .T. ) ;
#132 = PRODUCT_DEFINITION ( 'UNKNOWN', '', #127, #40 ) ;
#133 = SURFACE_STYLE_FILL_AREA ( #81 ) ;
#134 = STYLED_ITEM ( 'NONE', ( #146 ), #68 ) ;
#135 = CIRCLE ( 'NONE', #93, 0.7500000000000006661 ) ;
#136 = CIRCLE ( 'NONE', #98, 11.50000000000000178 ) ;
#137 = FACE_OUTER_BOUND ( 'NONE', #153, .T. ) ;
#138 = CIRCLE ( 'NONE', #102, 10.00000000000000000 ) ;
#139 = VERTEX_POINT ( 'NONE', #19 ) ;
#140 = TOROIDAL_SURFACE ( 'NONE', #64, 10.75000000000000000, 0.7500000000000003331 ) ;
#141 = VERTEX_POINT ( 'NONE', #58 ) ;
#142 = ORIENTED_EDGE ( 'NONE', *, *, #121, .T. ) ;
#143 = ADVANCED_FACE ( 'NONE', ( #106 ), #46, .T. ) ;
#144 = ORIENTED_EDGE ( 'NONE', *, *, #114, .T. ) ;
#145 = DIRECTION ( 'NONE',  ( -0.0000000000000000000, 1.000000000000000000, -0.0000000000000000000 ) ) ;
#146 = PRESENTATION_STYLE_ASSIGNMENT (( #9 ) ) ;
#147 = CIRCLE ( 'NONE', #92, 11.50000000000000178 ) ;
#148 = CIRCLE ( 'NONE', #69, 0.7500000000000006661 ) ;
#149 = CIRCLE ( 'NONE', #76, 0.7500000000000006661 ) ;
#150 = PRODUCT_DEFINITION_SHAPE ( 'NONE', 'NONE',  #132 ) ;
#151 = TOROIDAL_SURFACE ( 'NONE', #88, 10.75000000000000000, 0.7500000000000003331 ) ;
#152 = ORIENTED_EDGE ( 'NONE', *, *, #74, .T. ) ;
#153 = EDGE_LOOP ( 'NONE', ( #109, #119, #144, #89 ) ) ;
#154 = CIRCLE ( 'NONE', #99, 10.00000000000000000 ) ;
#155 = ORIENTED_EDGE ( 'NONE', *, *, #115, .F. ) ;
#156 = ORIENTED_EDGE ( 'NONE', *, *, #121, .F. ) ;
#157 = CLOSED_SHELL ( 'NONE', ( #34, #143, #18, #131 ) ) ;
#158 = UNCERTAINTY_MEASURE_WITH_UNIT (LENGTH_MEASURE( 1.000000000000000082E-05 ), #13, 'distance_accuracy_value', 'NONE');
ENDSEC;
END-ISO-10303-21;
