ISO-10303-21;
HEADER;
FILE_DESCRIPTION (( 'STEP AP214' ),
    '1' );
FILE_NAME ('2088819.stp',
    '2019-03-13T12:19:37',
    ( '' ),
    ( '' ),
    'SwSTEP 2.0',
    'SolidWorks 2018',
    '' );
FILE_SCHEMA (( 'AUTOMOTIVE_DESIGN' ));
ENDSEC;

DATA;
#1 = AXIS2_PLACEMENT_3D ( 'NONE', #53, #54, #55 ) ;
#2 = PRODUCT_DEFINITION_SHAPE ( 'NONE', 'NONE',  #144 ) ;
#3 = ADVANCED_FACE ( 'NONE', ( #86 ), #133, .T. ) ;
#4 =( GEOMETRIC_REPRESENTATION_CONTEXT ( 3 ) GLOBAL_UNCERTAINTY_ASSIGNED_CONTEXT ( ( #34 ) ) GLOBAL_UNIT_ASSIGNED_CONTEXT ( ( #92, #94, #95 ) ) REPRESENTATION_CONTEXT ( 'NONE', 'WORKASPACE' ) );
#5 = PRODUCT_DEFINITION_CONTEXT ( 'detailed design', #118, 'design' ) ;
#6 = ADVANCED_BREP_SHAPE_REPRESENTATION ( '2088819', ( #29, #68 ), #4 ) ;
#7 = AXIS2_PLACEMENT_3D ( 'NONE', #21, #27, #28 ) ;
#8 = EDGE_CURVE ( 'NONE', #105, #112, #121, .T. ) ;
#9 = EDGE_CURVE ( 'NONE', #112, #105, #93, .T. ) ;
#10 = EDGE_CURVE ( 'NONE', #112, #99, #156, .T. ) ;
#11 = EDGE_CURVE ( 'NONE', #90, #99, #124, .T. ) ;
#12 = EDGE_CURVE ( 'NONE', #99, #90, #103, .T. ) ;
#13 = EDGE_CURVE ( 'NONE', #90, #105, #122, .T. ) ;
#14 = STYLED_ITEM ( 'NONE', ( #142 ), #6 ) ;
#15 = UNCERTAINTY_MEASURE_WITH_UNIT (LENGTH_MEASURE( 1.000000000000000082E-05 ), #108, 'distance_accuracy_value', 'NONE');
#16 = ORIENTED_EDGE ( 'NONE', *, *, #13, .F. ) ;
#17 = AXIS2_PLACEMENT_3D ( 'NONE', #48, #49, #50 ) ;
#18 = ORIENTED_EDGE ( 'NONE', *, *, #132, .T. ) ;
#19 = ORIENTED_EDGE ( 'NONE', *, *, #11, .T. ) ;
#20 = PRODUCT ( '2088819', '2088819', '', ( #117 ) ) ;
#21 = CARTESIAN_POINT ( 'NONE',  ( 0.0000000000000000000, 0.0000000000000000000, 0.0000000000000000000 ) ) ;
#22 = AXIS2_PLACEMENT_3D ( 'NONE', #88, #89, #91 ) ;
#23 = ADVANCED_FACE ( 'NONE', ( #81 ), #125, .T. ) ;
#24 = PRESENTATION_LAYER_ASSIGNMENT (  '', '', ( #158 ) ) ;
#25 = AXIS2_PLACEMENT_3D ( 'NONE', #44, #45, #46 ) ;
#26 = AXIS2_PLACEMENT_3D ( 'NONE', #129, #154, #35 ) ;
#27 = DIRECTION ( 'NONE',  ( -0.0000000000000000000, 1.000000000000000000, -0.0000000000000000000 ) ) ;
#28 = DIRECTION ( 'NONE',  ( 0.0000000000000000000, 0.0000000000000000000, 1.000000000000000000 ) ) ;
#29 = MANIFOLD_SOLID_BREP ( 'Rotation1', #62 ) ;
#30 = EDGE_LOOP ( 'NONE', ( #16, #85, #18, #134 ) ) ;
#31 = AXIS2_PLACEMENT_3D ( 'NONE', #36, #37, #38 ) ;
#32 = AXIS2_PLACEMENT_3D ( 'NONE', #70, #51, #71 ) ;
#33 = MECHANICAL_DESIGN_GEOMETRIC_PRESENTATION_REPRESENTATION (  '', ( #14 ), #135 ) ;
#34 = UNCERTAINTY_MEASURE_WITH_UNIT (LENGTH_MEASURE( 1.000000000000000082E-05 ), #92, 'distance_accuracy_value', 'NONE');
#35 = DIRECTION ( 'NONE',  ( 0.0000000000000000000, 0.0000000000000000000, 1.000000000000000000 ) ) ;
#36 = CARTESIAN_POINT ( 'NONE',  ( 0.0000000000000000000, 0.0000000000000000000, 7.249999999999999112 ) ) ;
#37 = DIRECTION ( 'NONE',  ( -1.000000000000000000, 0.0000000000000000000, 0.0000000000000000000 ) ) ;
#38 = DIRECTION ( 'NONE',  ( 0.0000000000000000000, 0.0000000000000000000, 1.000000000000000000 ) ) ;
#39 = CARTESIAN_POINT ( 'NONE',  ( 0.0000000000000000000, -9.184850993605153368E-17, 0.0000000000000000000 ) ) ;
#40 = DIRECTION ( 'NONE',  ( -0.0000000000000000000, 1.000000000000000000, -0.0000000000000000000 ) ) ;
#41 = DIRECTION ( 'NONE',  ( 0.0000000000000000000, 0.0000000000000000000, 1.000000000000000000 ) ) ;
#42 = DIRECTION ( 'NONE',  ( -0.0000000000000000000, 1.000000000000000000, -0.0000000000000000000 ) ) ;
#43 = ADVANCED_FACE ( 'NONE', ( #102 ), #84, .T. ) ;
#44 = CARTESIAN_POINT ( 'NONE',  ( 8.878689293818310074E-16, 0.0000000000000000000, -7.249999999999999112 ) ) ;
#45 = DIRECTION ( 'NONE',  ( 1.000000000000000000, 0.0000000000000000000, 1.224646799147353207E-16 ) ) ;
#46 = DIRECTION ( 'NONE',  ( 1.224646799147351975E-16, 0.0000000000000000000, -1.000000000000000000 ) ) ;
#47 = FILL_AREA_STYLE_COLOUR ( '', #148 ) ;
#48 = CARTESIAN_POINT ( 'NONE',  ( 8.878689293818310074E-16, 0.0000000000000000000, -7.249999999999999112 ) ) ;
#49 = DIRECTION ( 'NONE',  ( 1.000000000000000000, 0.0000000000000000000, 1.224646799147353207E-16 ) ) ;
#50 = DIRECTION ( 'NONE',  ( 1.224646799147351975E-16, 0.0000000000000000000, -1.000000000000000000 ) ) ;
#51 = DIRECTION ( 'NONE',  ( -0.0000000000000000000, 1.000000000000000000, -0.0000000000000000000 ) ) ;
#52 = CARTESIAN_POINT ( 'NONE',  ( 0.0000000000000000000, 0.0000000000000000000, 0.0000000000000000000 ) ) ;
#53 = CARTESIAN_POINT ( 'NONE',  ( 0.0000000000000000000, 0.0000000000000000000, 0.0000000000000000000 ) ) ;
#54 = DIRECTION ( 'NONE',  ( -0.0000000000000000000, 1.000000000000000000, -0.0000000000000000000 ) ) ;
#55 = DIRECTION ( 'NONE',  ( 0.0000000000000000000, 0.0000000000000000000, 1.000000000000000000 ) ) ;
#56 = DIRECTION ( 'NONE',  ( 0.0000000000000000000, 0.0000000000000000000, 1.000000000000000000 ) ) ;
#57 = DIRECTION ( 'NONE',  ( -0.0000000000000000000, 1.000000000000000000, -0.0000000000000000000 ) ) ;
#58 = FILL_AREA_STYLE ('',( #47 ) ) ;
#59 = ADVANCED_FACE ( 'NONE', ( #138 ), #137, .T. ) ;
#60 = SURFACE_SIDE_STYLE ('',( #147 ) ) ;
#61 = SURFACE_STYLE_USAGE ( .BOTH. , #60 ) ;
#62 = CLOSED_SHELL ( 'NONE', ( #59, #23, #3, #43 ) ) ;
#63 =( LENGTH_UNIT ( ) NAMED_UNIT ( * ) SI_UNIT ( .MILLI., .METRE. ) );
#64 =( GEOMETRIC_REPRESENTATION_CONTEXT ( 3 ) GLOBAL_UNCERTAINTY_ASSIGNED_CONTEXT ( ( #153 ) ) GLOBAL_UNIT_ASSIGNED_CONTEXT ( ( #63, #65, #67 ) ) REPRESENTATION_CONTEXT ( 'NONE', 'WORKASPACE' ) );
#65 =( NAMED_UNIT ( * ) PLANE_ANGLE_UNIT ( ) SI_UNIT ( $, .RADIAN. ) );
#66 = ORIENTED_EDGE ( 'NONE', *, *, #12, .T. ) ;
#67 =( NAMED_UNIT ( * ) SI_UNIT ( $, .STERADIAN. ) SOLID_ANGLE_UNIT ( ) );
#68 = AXIS2_PLACEMENT_3D ( 'NONE', #87, #114, #115 ) ;
#69 = CARTESIAN_POINT ( 'NONE',  ( 7.960204194457794491E-16, -9.184850993605149670E-17, -6.499999999999999112 ) ) ;
#70 = CARTESIAN_POINT ( 'NONE',  ( 0.0000000000000000000, 0.0000000000000000000, 0.0000000000000000000 ) ) ;
#71 = DIRECTION ( 'NONE',  ( 0.0000000000000000000, 0.0000000000000000000, 1.000000000000000000 ) ) ;
#72 = CARTESIAN_POINT ( 'NONE',  ( 0.0000000000000000000, 0.0000000000000000000, 8.000000000000000000 ) ) ;
#73 = CARTESIAN_POINT ( 'NONE',  ( 9.797174393178825657E-16, 0.0000000000000000000, -8.000000000000000000 ) ) ;
#74 = EDGE_LOOP ( 'NONE', ( #128, #126, #120, #66 ) ) ;
#75 = EDGE_LOOP ( 'NONE', ( #145, #113, #101, #155 ) ) ;
#76 = CARTESIAN_POINT ( 'NONE',  ( 0.0000000000000000000, -9.184850993605149670E-17, 6.499999999999999112 ) ) ;
#77 = FILL_AREA_STYLE_COLOUR ( '', #141 ) ;
#78 = AXIS2_PLACEMENT_3D ( 'NONE', #52, #42, #56 ) ;
#79 = CARTESIAN_POINT ( 'NONE',  ( 0.0000000000000000000, -9.184850993605153368E-17, 0.0000000000000000000 ) ) ;
#80 = AXIS2_PLACEMENT_3D ( 'NONE', #140, #57, #136 ) ;
#81 = FACE_OUTER_BOUND ( 'NONE', #109, .T. ) ;
#82 = DIRECTION ( 'NONE',  ( -0.0000000000000000000, 1.000000000000000000, -0.0000000000000000000 ) ) ;
#83 = DIRECTION ( 'NONE',  ( 0.0000000000000000000, 0.0000000000000000000, 1.000000000000000000 ) ) ;
#84 = TOROIDAL_SURFACE ( 'NONE', #80, 7.249999999999999112, 0.7500000000000003331 ) ;
#85 = ORIENTED_EDGE ( 'NONE', *, *, #12, .F. ) ;
#86 = FACE_OUTER_BOUND ( 'NONE', #74, .T. ) ;
#87 = CARTESIAN_POINT ( 'NONE',  ( 0.0000000000000000000, 0.0000000000000000000, 0.0000000000000000000 ) ) ;
#88 = CARTESIAN_POINT ( 'NONE',  ( 0.0000000000000000000, 0.0000000000000000000, 0.0000000000000000000 ) ) ;
#89 = DIRECTION ( 'NONE',  ( -0.0000000000000000000, 1.000000000000000000, -0.0000000000000000000 ) ) ;
#90 = VERTEX_POINT ( 'NONE', #73 ) ;
#91 = DIRECTION ( 'NONE',  ( 0.0000000000000000000, 0.0000000000000000000, 1.000000000000000000 ) ) ;
#92 =( LENGTH_UNIT ( ) NAMED_UNIT ( * ) SI_UNIT ( .MILLI., .METRE. ) );
#93 = CIRCLE ( 'NONE', #31, 0.7500000000000006661 ) ;
#94 =( NAMED_UNIT ( * ) PLANE_ANGLE_UNIT ( ) SI_UNIT ( $, .RADIAN. ) );
#95 =( NAMED_UNIT ( * ) SI_UNIT ( $, .STERADIAN. ) SOLID_ANGLE_UNIT ( ) );
#96 = ORIENTED_EDGE ( 'NONE', *, *, #150, .T. ) ;
#97 = ORIENTED_EDGE ( 'NONE', *, *, #8, .F. ) ;
#98 = APPLICATION_PROTOCOL_DEFINITION ( 'draft international standard', 'automotive_design', 1998, #100 ) ;
#99 = VERTEX_POINT ( 'NONE', #69 ) ;
#100 = APPLICATION_CONTEXT ( 'automotive_design' ) ;
#101 = ORIENTED_EDGE ( 'NONE', *, *, #8, .T. ) ;
#102 = FACE_OUTER_BOUND ( 'NONE', #30, .T. ) ;
#103 = CIRCLE ( 'NONE', #17, 0.7500000000000006661 ) ;
#104 = FILL_AREA_STYLE ('',( #77 ) ) ;
#105 = VERTEX_POINT ( 'NONE', #72 ) ;
#106 = SURFACE_SIDE_STYLE ('',( #143 ) ) ;
#107 = SURFACE_STYLE_USAGE ( .BOTH. , #106 ) ;
#108 =( LENGTH_UNIT ( ) NAMED_UNIT ( * ) SI_UNIT ( .MILLI., .METRE. ) );
#109 = EDGE_LOOP ( 'NONE', ( #97, #96, #19, #127 ) ) ;
#110 =( NAMED_UNIT ( * ) PLANE_ANGLE_UNIT ( ) SI_UNIT ( $, .RADIAN. ) );
#111 =( NAMED_UNIT ( * ) SI_UNIT ( $, .STERADIAN. ) SOLID_ANGLE_UNIT ( ) );
#112 = VERTEX_POINT ( 'NONE', #76 ) ;
#113 = ORIENTED_EDGE ( 'NONE', *, *, #13, .T. ) ;
#114 = DIRECTION ( 'NONE',  ( 0.0000000000000000000, 0.0000000000000000000, 1.000000000000000000 ) ) ;
#115 = DIRECTION ( 'NONE',  ( 1.000000000000000000, 0.0000000000000000000, 0.0000000000000000000 ) ) ;
#116 = PRODUCT_RELATED_PRODUCT_CATEGORY ( 'part', '', ( #20 ) ) ;
#117 = PRODUCT_CONTEXT ( 'NONE', #100, 'mechanical' ) ;
#118 = APPLICATION_CONTEXT ( 'automotive_design' ) ;
#119 = APPLICATION_PROTOCOL_DEFINITION ( 'draft international standard', 'automotive_design', 1998, #118 ) ;
#120 = ORIENTED_EDGE ( 'NONE', *, *, #10, .T. ) ;
#121 = CIRCLE ( 'NONE', #26, 0.7500000000000006661 ) ;
#122 = CIRCLE ( 'NONE', #1, 8.000000000000000000 ) ;
#123 = MECHANICAL_DESIGN_GEOMETRIC_PRESENTATION_REPRESENTATION (  '', ( #158 ), #64 ) ;
#124 = CIRCLE ( 'NONE', #25, 0.7500000000000006661 ) ;
#125 = TOROIDAL_SURFACE ( 'NONE', #78, 7.249999999999999112, 0.7500000000000003331 ) ;
#126 = ORIENTED_EDGE ( 'NONE', *, *, #9, .F. ) ;
#127 = ORIENTED_EDGE ( 'NONE', *, *, #10, .F. ) ;
#128 = ORIENTED_EDGE ( 'NONE', *, *, #150, .F. ) ;
#129 = CARTESIAN_POINT ( 'NONE',  ( 0.0000000000000000000, 0.0000000000000000000, 7.249999999999999112 ) ) ;
#130 = AXIS2_PLACEMENT_3D ( 'NONE', #79, #82, #83 ) ;
#131 = PRESENTATION_LAYER_ASSIGNMENT (  '', '', ( #14 ) ) ;
#132 = EDGE_CURVE ( 'NONE', #99, #112, #139, .T. ) ;
#133 = TOROIDAL_SURFACE ( 'NONE', #7, 7.249999999999999112, 0.7500000000000003331 ) ;
#134 = ORIENTED_EDGE ( 'NONE', *, *, #9, .T. ) ;
#135 =( GEOMETRIC_REPRESENTATION_CONTEXT ( 3 ) GLOBAL_UNCERTAINTY_ASSIGNED_CONTEXT ( ( #15 ) ) GLOBAL_UNIT_ASSIGNED_CONTEXT ( ( #108, #110, #111 ) ) REPRESENTATION_CONTEXT ( 'NONE', 'WORKASPACE' ) );
#136 = DIRECTION ( 'NONE',  ( 0.0000000000000000000, 0.0000000000000000000, 1.000000000000000000 ) ) ;
#137 = TOROIDAL_SURFACE ( 'NONE', #32, 7.249999999999999112, 0.7500000000000003331 ) ;
#138 = FACE_OUTER_BOUND ( 'NONE', #75, .T. ) ;
#139 = CIRCLE ( 'NONE', #130, 6.499999999999999112 ) ;
#140 = CARTESIAN_POINT ( 'NONE',  ( 0.0000000000000000000, 0.0000000000000000000, 0.0000000000000000000 ) ) ;
#141 = COLOUR_RGB ( '',0.7529411764705882248, 0.7529411764705882248, 0.7529411764705882248 ) ;
#142 = PRESENTATION_STYLE_ASSIGNMENT (( #107 ) ) ;
#143 = SURFACE_STYLE_FILL_AREA ( #104 ) ;
#144 = PRODUCT_DEFINITION ( 'UNKNOWN', '', #149, #5 ) ;
#145 = ORIENTED_EDGE ( 'NONE', *, *, #11, .F. ) ;
#146 = SHAPE_DEFINITION_REPRESENTATION ( #2, #6 ) ;
#147 = SURFACE_STYLE_FILL_AREA ( #58 ) ;
#148 = COLOUR_RGB ( '',0.7529411764705882248, 0.7529411764705882248, 0.7529411764705882248 ) ;
#149 = PRODUCT_DEFINITION_FORMATION_WITH_SPECIFIED_SOURCE ( 'ANY', '', #20, .NOT_KNOWN. ) ;
#150 = EDGE_CURVE ( 'NONE', #105, #90, #152, .T. ) ;
#151 = PRESENTATION_STYLE_ASSIGNMENT (( #61 ) ) ;
#152 = CIRCLE ( 'NONE', #22, 8.000000000000000000 ) ;
#153 = UNCERTAINTY_MEASURE_WITH_UNIT (LENGTH_MEASURE( 1.000000000000000082E-05 ), #63, 'distance_accuracy_value', 'NONE');
#154 = DIRECTION ( 'NONE',  ( -1.000000000000000000, 0.0000000000000000000, 0.0000000000000000000 ) ) ;
#155 = ORIENTED_EDGE ( 'NONE', *, *, #132, .F. ) ;
#156 = CIRCLE ( 'NONE', #157, 6.499999999999999112 ) ;
#157 = AXIS2_PLACEMENT_3D ( 'NONE', #39, #40, #41 ) ;
#158 = STYLED_ITEM ( 'NONE', ( #151 ), #29 ) ;
ENDSEC;
END-ISO-10303-21;
