ISO-10303-21;
HEADER;
FILE_DESCRIPTION(('CoCreate Modeling STEP Export'),'2;1');
FILE_NAME('//FS74/opt/RCSResult/0067361_1-2088754.step',
'2013-12-16T11:09:18',(''),(''),
'CoCreate Modeling STEP processor for AP214 (Solid Model)',
'CoCreate Modeling 16.00B  02-Dec-2008 (C) Parametric Technology GmbH',
'');
FILE_SCHEMA(('AUTOMOTIVE_DESIGN { 1 0 10303 214 1 1 1 1 }'));
ENDSEC;
DATA;
#10=CARTESIAN_POINT('',(0.,0.,0.));
#20=DIRECTION('',(0.,1.,0.));
#30=DIRECTION('',(-1.,0.,0.));
#40=AXIS2_PLACEMENT_3D('',#10,#20,#30);
#50=TOROIDAL_SURFACE('',#40,15.5,1.);
#60=CARTESIAN_POINT('',(15.5,0.,0.));
#70=DIRECTION('',(0.,0.,-1.));
#80=DIRECTION('',(1.,0.,0.));
#90=AXIS2_PLACEMENT_3D('',#60,#70,#80);
#100=CIRCLE('',#90,1.);
#110=CARTESIAN_POINT('',(16.5,-1.22464679914735E-16,0.));
#120=VERTEX_POINT('',#110);
#130=CARTESIAN_POINT('',(14.5,-1.22464679914735E-16,0.));
#140=VERTEX_POINT('',#130);
#150=EDGE_CURVE('',#120,#140,#100,.T.);
#160=ORIENTED_EDGE('',*,*,#150,.T.);
#170=CARTESIAN_POINT('',(0.,-1.22464679914735E-16,0.));
#180=DIRECTION('',(0.,1.,0.));
#190=DIRECTION('',(-1.,0.,0.));
#200=AXIS2_PLACEMENT_3D('',#170,#180,#190);
#210=CIRCLE('',#200,16.5);
#220=CARTESIAN_POINT('',(-16.5,0.,0.));
#230=VERTEX_POINT('',#220);
#240=EDGE_CURVE('',#120,#230,#210,.T.);
#250=ORIENTED_EDGE('',*,*,#240,.F.);
#260=CARTESIAN_POINT('',(-15.5,0.,0.));
#270=DIRECTION('',(0.,0.,1.));
#280=DIRECTION('',(-1.,0.,0.));
#290=AXIS2_PLACEMENT_3D('',#260,#270,#280);
#300=CIRCLE('',#290,1.);
#310=CARTESIAN_POINT('',(-14.5,-1.22464679914735E-16,0.));
#320=VERTEX_POINT('',#310);
#330=EDGE_CURVE('',#230,#320,#300,.T.);
#340=ORIENTED_EDGE('',*,*,#330,.F.);
#350=CARTESIAN_POINT('',(0.,-1.22464679914735E-16,0.));
#360=DIRECTION('',(0.,1.,0.));
#370=DIRECTION('',(-1.,0.,0.));
#380=AXIS2_PLACEMENT_3D('',#350,#360,#370);
#390=CIRCLE('',#380,14.5);
#400=EDGE_CURVE('',#140,#320,#390,.T.);
#410=ORIENTED_EDGE('',*,*,#400,.T.);
#420=EDGE_LOOP('',(#410,#340,#250,#160));
#430=FACE_OUTER_BOUND('',#420,.T.);
#440=ADVANCED_FACE('',(#430),#50,.T.);
#450=CARTESIAN_POINT('',(-15.5,0.,0.));
#460=DIRECTION('',(0.,0.,1.));
#470=DIRECTION('',(-1.,0.,0.));
#480=AXIS2_PLACEMENT_3D('',#450,#460,#470);
#490=CIRCLE('',#480,1.);
#500=EDGE_CURVE('',#320,#230,#490,.T.);
#510=ORIENTED_EDGE('',*,*,#500,.F.);
#520=ORIENTED_EDGE('',*,*,#240,.T.);
#530=CARTESIAN_POINT('',(15.5,0.,0.));
#540=DIRECTION('',(0.,0.,-1.));
#550=DIRECTION('',(1.,0.,0.));
#560=AXIS2_PLACEMENT_3D('',#530,#540,#550);
#570=CIRCLE('',#560,1.);
#580=EDGE_CURVE('',#140,#120,#570,.T.);
#590=ORIENTED_EDGE('',*,*,#580,.T.);
#600=ORIENTED_EDGE('',*,*,#400,.F.);
#610=EDGE_LOOP('',(#600,#590,#520,#510));
#620=FACE_OUTER_BOUND('',#610,.T.);
#630=ADVANCED_FACE('',(#620),#50,.T.);
#640=EDGE_CURVE('',#230,#120,#210,.T.);
#650=ORIENTED_EDGE('',*,*,#640,.T.);
#660=ORIENTED_EDGE('',*,*,#500,.T.);
#670=EDGE_CURVE('',#320,#140,#390,.T.);
#680=ORIENTED_EDGE('',*,*,#670,.F.);
#690=ORIENTED_EDGE('',*,*,#580,.F.);
#700=EDGE_LOOP('',(#690,#680,#660,#650));
#710=FACE_OUTER_BOUND('',#700,.T.);
#720=ADVANCED_FACE('',(#710),#50,.T.);
#730=ORIENTED_EDGE('',*,*,#640,.F.);
#740=ORIENTED_EDGE('',*,*,#150,.F.);
#750=ORIENTED_EDGE('',*,*,#670,.T.);
#760=ORIENTED_EDGE('',*,*,#330,.T.);
#770=EDGE_LOOP('',(#760,#750,#740,#730));
#780=FACE_OUTER_BOUND('',#770,.T.);
#790=ADVANCED_FACE('',(#780),#50,.T.);
#800=CLOSED_SHELL('',(#440,#630,#720,#790));
#810=MANIFOLD_SOLID_BREP('',#800);
#820=CARTESIAN_POINT('',(0.,0.,0.));
#830=DIRECTION('',(0.,0.,1.));
#840=DIRECTION('',(1.,0.,0.));
#850=AXIS2_PLACEMENT_3D('',#820,#830,#840);
#860=APPLICATION_CONTEXT(' ');
#870=APPLICATION_PROTOCOL_DEFINITION(' ','automotive_design',1998,#860);
#880=PRODUCT_CONTEXT('',#860,'mechanical');
#890=PRODUCT_DEFINITION_CONTEXT('part definition',#860,'design');
#900=PRODUCT('O_Dichtring_F\S\|r_Anschlu\S\_gewinde_171M_M32_Katal.',
'O_Dichtring_F\S\|r_Anschlu\S\_gewinde_171M_M32_Katal.','',(#880));
#910=PRODUCT_RELATED_PRODUCT_CATEGORY('part',' ',(#900));
#920=PRODUCT_DEFINITION_FORMATION_WITH_SPECIFIED_SOURCE('','',#900,
.BOUGHT.);
#930=PRODUCT_DEFINITION('',' ',#920,#890);
#940=PRODUCT_DEFINITION_SHAPE('','',#930);
#950=DIMENSIONAL_EXPONENTS(1.,0.,0.,0.,0.,0.,0.);
#960=DIMENSIONAL_EXPONENTS(0.,0.,0.,0.,0.,0.,0.);
#970=DIMENSIONAL_EXPONENTS(0.,0.,0.,0.,0.,0.,0.);
#980=(LENGTH_UNIT() NAMED_UNIT(*) SI_UNIT(.MILLI.,.METRE.));
#990=(NAMED_UNIT(*) PLANE_ANGLE_UNIT() SI_UNIT($,.RADIAN.));
#1000=(NAMED_UNIT(*) SI_UNIT($,.STERADIAN.) SOLID_ANGLE_UNIT());
#1010=(GEOMETRIC_REPRESENTATION_CONTEXT(3) 
GLOBAL_UNCERTAINTY_ASSIGNED_CONTEXT((#1020)) 
GLOBAL_UNIT_ASSIGNED_CONTEXT((#980,#990,#1000)) REPRESENTATION_CONTEXT(
'',''));
#1020=UNCERTAINTY_MEASURE_WITH_UNIT(LENGTH_MEASURE(1.E-6),#980,
'distance_accuracy_value','maximum gap value');
#1030=ADVANCED_BREP_SHAPE_REPRESENTATION('',(#850,#810),#1010);
#1040=SHAPE_DEFINITION_REPRESENTATION(#940,#1030);
#1050=COLOUR_RGB('',0.600000023841858,0.600000023841858,
0.600000023841858);
#1060=FILL_AREA_STYLE_COLOUR('',#1050);
#1070=FILL_AREA_STYLE('',(#1060));
#1080=SURFACE_STYLE_FILL_AREA(#1070);
#1090=SURFACE_SIDE_STYLE('',(#1080));
#1100=SURFACE_STYLE_USAGE(.BOTH.,#1090);
#1110=PRESENTATION_STYLE_ASSIGNMENT((#1100));
#1120=STYLED_ITEM('',(#1110),#810);
#1130=DRAUGHTING_MODEL('',(#1120),#1010);
ENDSEC;
END-ISO-10303-21;
