ISO-10303-21;
HEADER;
/* Generated by software containing ST-Developer
 * from STEP Tools, Inc. (www.steptools.com) 
 */
/* OPTION: using custom schema-name function */

FILE_DESCRIPTION(
/* description */ (''),
/* implementation_level */ '2;1');

FILE_NAME(
/* name */ '2088746',
/* time_stamp */ '2013-12-16T13:14:42+01:00',
/* author */ (''),
/* organization */ (''),
/* preprocessor_version */ 'ST-DEVELOPER v15',
/* originating_system */ '',
/* authorisation */ '');

FILE_SCHEMA (('AUTOMOTIVE_DESIGN'));
ENDSEC;

DATA;
#10=SHAPE_REPRESENTATION_RELATIONSHIP('','',#85,#13);
#11=PRESENTATION_LAYER_ASSIGNMENT('Default','',(#12));
#12=MANIFOLD_SOLID_BREP('brep_1',#14);
#13=ADVANCED_BREP_SHAPE_REPRESENTATION('brep_rep_0',(#12,#87),#84);
#14=CLOSED_SHELL('',(#15,#16,#17,#18));
#15=ADVANCED_FACE('',(#19),#63,.T.);
#16=ADVANCED_FACE('',(#20),#64,.T.);
#17=ADVANCED_FACE('',(#21),#65,.T.);
#18=ADVANCED_FACE('',(#22),#66,.T.);
#19=FACE_OUTER_BOUND('',#23,.T.);
#20=FACE_OUTER_BOUND('',#24,.T.);
#21=FACE_OUTER_BOUND('',#25,.T.);
#22=FACE_OUTER_BOUND('',#26,.T.);
#23=EDGE_LOOP('',(#27,#28,#29,#30));
#24=EDGE_LOOP('',(#31,#32,#33,#34));
#25=EDGE_LOOP('',(#35,#36,#37,#38));
#26=EDGE_LOOP('',(#39,#40,#41,#42));
#27=ORIENTED_EDGE('',*,*,#47,.T.);
#28=ORIENTED_EDGE('',*,*,#49,.T.);
#29=ORIENTED_EDGE('',*,*,#43,.F.);
#30=ORIENTED_EDGE('',*,*,#48,.F.);
#31=ORIENTED_EDGE('',*,*,#50,.T.);
#32=ORIENTED_EDGE('',*,*,#48,.T.);
#33=ORIENTED_EDGE('',*,*,#46,.F.);
#34=ORIENTED_EDGE('',*,*,#49,.F.);
#35=ORIENTED_EDGE('',*,*,#44,.F.);
#36=ORIENTED_EDGE('',*,*,#43,.T.);
#37=ORIENTED_EDGE('',*,*,#45,.T.);
#38=ORIENTED_EDGE('',*,*,#47,.F.);
#39=ORIENTED_EDGE('',*,*,#45,.F.);
#40=ORIENTED_EDGE('',*,*,#46,.T.);
#41=ORIENTED_EDGE('',*,*,#44,.T.);
#42=ORIENTED_EDGE('',*,*,#50,.F.);
#43=EDGE_CURVE('',#59,#60,#51,.T.);
#44=EDGE_CURVE('',#59,#61,#52,.T.);
#45=EDGE_CURVE('',#60,#62,#53,.T.);
#46=EDGE_CURVE('',#60,#59,#54,.T.);
#47=EDGE_CURVE('',#61,#62,#55,.T.);
#48=EDGE_CURVE('',#61,#59,#56,.T.);
#49=EDGE_CURVE('',#62,#60,#57,.T.);
#50=EDGE_CURVE('',#62,#61,#58,.T.);
#51=(
BOUNDED_CURVE()
B_SPLINE_CURVE(2,(#197,#198,#199,#200,#201),.UNSPECIFIED.,.F.,.F.)
B_SPLINE_CURVE_WITH_KNOTS((3,2,3),(0.,1.17809724509617,2.35619449019234),
 .UNSPECIFIED.)
CURVE()
GEOMETRIC_REPRESENTATION_ITEM()
RATIONAL_B_SPLINE_CURVE((1.,0.707106781186548,1.,0.707106781186548,1.))
REPRESENTATION_ITEM('')
);
#52=(
BOUNDED_CURVE()
B_SPLINE_CURVE(2,(#202,#203,#204,#205,#206),.UNSPECIFIED.,.F.,.F.)
B_SPLINE_CURVE_WITH_KNOTS((3,2,3),(0.,19.6349540849362,39.2699081698724),
 .UNSPECIFIED.)
CURVE()
GEOMETRIC_REPRESENTATION_ITEM()
RATIONAL_B_SPLINE_CURVE((1.,0.707106781186548,1.,0.707106781186548,1.))
REPRESENTATION_ITEM('')
);
#53=(
BOUNDED_CURVE()
B_SPLINE_CURVE(2,(#207,#208,#209,#210,#211),.UNSPECIFIED.,.F.,.F.)
B_SPLINE_CURVE_WITH_KNOTS((3,2,3),(0.,19.6349540849362,39.2699081698724),
 .UNSPECIFIED.)
CURVE()
GEOMETRIC_REPRESENTATION_ITEM()
RATIONAL_B_SPLINE_CURVE((1.,0.707106781186548,1.,0.707106781186548,1.))
REPRESENTATION_ITEM('')
);
#54=(
BOUNDED_CURVE()
B_SPLINE_CURVE(2,(#212,#213,#214,#215,#216),.UNSPECIFIED.,.F.,.F.)
B_SPLINE_CURVE_WITH_KNOTS((3,2,3),(2.35619449019234,3.53429173528852,4.71238898038469),
 .UNSPECIFIED.)
CURVE()
GEOMETRIC_REPRESENTATION_ITEM()
RATIONAL_B_SPLINE_CURVE((1.,0.707106781186548,1.,0.707106781186548,1.))
REPRESENTATION_ITEM('')
);
#55=(
BOUNDED_CURVE()
B_SPLINE_CURVE(2,(#217,#218,#219,#220,#221),.UNSPECIFIED.,.F.,.F.)
B_SPLINE_CURVE_WITH_KNOTS((3,2,3),(0.,1.17809724509617,2.35619449019234),
 .UNSPECIFIED.)
CURVE()
GEOMETRIC_REPRESENTATION_ITEM()
RATIONAL_B_SPLINE_CURVE((1.,0.707106781186548,1.,0.707106781186548,1.))
REPRESENTATION_ITEM('')
);
#56=(
BOUNDED_CURVE()
B_SPLINE_CURVE(2,(#222,#223,#224,#225,#226),.UNSPECIFIED.,.F.,.F.)
B_SPLINE_CURVE_WITH_KNOTS((3,2,3),(39.2699081698724,58.9048622548086,78.5398163397448),
 .UNSPECIFIED.)
CURVE()
GEOMETRIC_REPRESENTATION_ITEM()
RATIONAL_B_SPLINE_CURVE((1.,0.707106781186548,1.,0.707106781186548,1.))
REPRESENTATION_ITEM('')
);
#57=(
BOUNDED_CURVE()
B_SPLINE_CURVE(2,(#227,#228,#229,#230,#231),.UNSPECIFIED.,.F.,.F.)
B_SPLINE_CURVE_WITH_KNOTS((3,2,3),(39.2699081698724,58.9048622548086,78.5398163397448),
 .UNSPECIFIED.)
CURVE()
GEOMETRIC_REPRESENTATION_ITEM()
RATIONAL_B_SPLINE_CURVE((1.,0.707106781186548,1.,0.707106781186548,1.))
REPRESENTATION_ITEM('')
);
#58=(
BOUNDED_CURVE()
B_SPLINE_CURVE(2,(#232,#233,#234,#235,#236),.UNSPECIFIED.,.F.,.F.)
B_SPLINE_CURVE_WITH_KNOTS((3,2,3),(2.35619449019234,3.53429173528852,4.71238898038469),
 .UNSPECIFIED.)
CURVE()
GEOMETRIC_REPRESENTATION_ITEM()
RATIONAL_B_SPLINE_CURVE((1.,0.707106781186548,1.,0.707106781186548,1.))
REPRESENTATION_ITEM('')
);
#59=VERTEX_POINT('',#193);
#60=VERTEX_POINT('',#194);
#61=VERTEX_POINT('',#195);
#62=VERTEX_POINT('',#196);
#63=(
BOUNDED_SURFACE()
B_SPLINE_SURFACE(2,2,((#93,#94,#95,#96,#97),(#98,#99,#100,#101,#102),(#103,
#104,#105,#106,#107),(#108,#109,#110,#111,#112),(#113,#114,#115,#116,#117)),
 .UNSPECIFIED.,.F.,.F.,.F.)
B_SPLINE_SURFACE_WITH_KNOTS((3,2,3),(3,2,3),(0.,1.17809724509617,2.35619449019234),
(39.2699081698724,58.9048622548086,78.5398163397448),.UNSPECIFIED.)
GEOMETRIC_REPRESENTATION_ITEM()
RATIONAL_B_SPLINE_SURFACE(((1.,0.707106781186548,1.,0.707106781186548,1.),
(0.707106781186548,0.5,0.707106781186548,0.5,0.707106781186548),(1.,0.707106781186548,
1.,0.707106781186548,1.),(0.707106781186548,0.5,0.707106781186548,0.5,0.707106781186548),
(1.,0.707106781186548,1.,0.707106781186548,1.)))
REPRESENTATION_ITEM('')
SURFACE()
);
#64=(
BOUNDED_SURFACE()
B_SPLINE_SURFACE(2,2,((#118,#119,#120,#121,#122),(#123,#124,#125,#126,#127),
(#128,#129,#130,#131,#132),(#133,#134,#135,#136,#137),(#138,#139,#140,#141,
#142)),.UNSPECIFIED.,.F.,.F.,.F.)
B_SPLINE_SURFACE_WITH_KNOTS((3,2,3),(3,2,3),(2.35619449019234,3.53429173528852,
4.71238898038469),(39.2699081698724,58.9048622548086,78.5398163397448),
 .UNSPECIFIED.)
GEOMETRIC_REPRESENTATION_ITEM()
RATIONAL_B_SPLINE_SURFACE(((1.,0.707106781186548,1.,0.707106781186548,1.),
(0.707106781186548,0.5,0.707106781186548,0.5,0.707106781186548),(1.,0.707106781186548,
1.,0.707106781186548,1.),(0.707106781186548,0.5,0.707106781186548,0.5,0.707106781186548),
(1.,0.707106781186548,1.,0.707106781186548,1.)))
REPRESENTATION_ITEM('')
SURFACE()
);
#65=(
BOUNDED_SURFACE()
B_SPLINE_SURFACE(2,2,((#143,#144,#145,#146,#147),(#148,#149,#150,#151,#152),
(#153,#154,#155,#156,#157),(#158,#159,#160,#161,#162),(#163,#164,#165,#166,
#167)),.UNSPECIFIED.,.F.,.F.,.F.)
B_SPLINE_SURFACE_WITH_KNOTS((3,2,3),(3,2,3),(0.,1.17809724509617,2.35619449019234),
(0.,19.6349540849362,39.2699081698724),.UNSPECIFIED.)
GEOMETRIC_REPRESENTATION_ITEM()
RATIONAL_B_SPLINE_SURFACE(((1.,0.707106781186548,1.,0.707106781186548,1.),
(0.707106781186548,0.5,0.707106781186548,0.5,0.707106781186548),(1.,0.707106781186548,
1.,0.707106781186548,1.),(0.707106781186548,0.5,0.707106781186548,0.5,0.707106781186548),
(1.,0.707106781186548,1.,0.707106781186548,1.)))
REPRESENTATION_ITEM('')
SURFACE()
);
#66=(
BOUNDED_SURFACE()
B_SPLINE_SURFACE(2,2,((#168,#169,#170,#171,#172),(#173,#174,#175,#176,#177),
(#178,#179,#180,#181,#182),(#183,#184,#185,#186,#187),(#188,#189,#190,#191,
#192)),.UNSPECIFIED.,.F.,.F.,.F.)
B_SPLINE_SURFACE_WITH_KNOTS((3,2,3),(3,2,3),(2.35619449019234,3.53429173528852,
4.71238898038469),(0.,19.6349540849362,39.2699081698724),.UNSPECIFIED.)
GEOMETRIC_REPRESENTATION_ITEM()
RATIONAL_B_SPLINE_SURFACE(((1.,0.707106781186548,1.,0.707106781186548,1.),
(0.707106781186548,0.5,0.707106781186548,0.5,0.707106781186548),(1.,0.707106781186548,
1.,0.707106781186548,1.),(0.707106781186548,0.5,0.707106781186548,0.5,0.707106781186548),
(1.,0.707106781186548,1.,0.707106781186548,1.)))
REPRESENTATION_ITEM('')
SURFACE()
);
#67=SHAPE_DEFINITION_REPRESENTATION(#68,#85);
#68=PRODUCT_DEFINITION_SHAPE('Document','',#70);
#69=PRODUCT_DEFINITION_CONTEXT('3D Mechanical Parts',#74,'design');
#70=PRODUCT_DEFINITION('A','First version',#71,#69);
#71=PRODUCT_DEFINITION_FORMATION_WITH_SPECIFIED_SOURCE('A',
'First version',#76,.MADE.);
#72=PRODUCT_RELATED_PRODUCT_CATEGORY('tool','tool',(#76));
#73=APPLICATION_PROTOCOL_DEFINITION('Draft International Standard',
'automotive_design',1999,#74);
#74=APPLICATION_CONTEXT(
'data for automotive mechanical design processes');
#75=PRODUCT_CONTEXT('3D Mechanical Parts',#74,'mechanical');
#76=PRODUCT('Document','Document','Rhino converted to STEP',(#75));
#77=(
LENGTH_UNIT()
NAMED_UNIT(*)
SI_UNIT(.MILLI.,.METRE.)
);
#78=(
NAMED_UNIT(*)
PLANE_ANGLE_UNIT()
SI_UNIT($,.RADIAN.)
);
#79=DIMENSIONAL_EXPONENTS(0.,0.,0.,0.,0.,0.,0.);
#80=PLANE_ANGLE_MEASURE_WITH_UNIT(PLANE_ANGLE_MEASURE(0.01745329252),#78);
#81=(
CONVERSION_BASED_UNIT('DEGREES',#80)
NAMED_UNIT(#79)
PLANE_ANGLE_UNIT()
);
#82=(
NAMED_UNIT(*)
SI_UNIT($,.STERADIAN.)
SOLID_ANGLE_UNIT()
);
#83=UNCERTAINTY_MEASURE_WITH_UNIT(LENGTH_MEASURE(0.001),#77,
'DISTANCE_ACCURACY_VALUE',
'Maximum model space distance between geometric entities at asserted c
onnectivities');
#84=(
GEOMETRIC_REPRESENTATION_CONTEXT(3)
GLOBAL_UNCERTAINTY_ASSIGNED_CONTEXT((#83))
GLOBAL_UNIT_ASSIGNED_CONTEXT((#82,#81,#77))
REPRESENTATION_CONTEXT('ID1','3D')
);
#85=SHAPE_REPRESENTATION('Document',(#86,#87),#84);
#86=AXIS2_PLACEMENT_3D('',#92,#88,#89);
#87=AXIS2_PLACEMENT_3D('',#237,#90,#91);
#88=DIRECTION('',(0.,0.,1.));
#89=DIRECTION('',(1.,0.,0.));
#90=DIRECTION('',(0.,0.,1.));
#91=DIRECTION('',(1.,0.,0.));
#92=CARTESIAN_POINT('',(0.,0.,0.));
#93=CARTESIAN_POINT('',(22.,0.,0.));
#94=CARTESIAN_POINT('',(22.,-0.75,0.));
#95=CARTESIAN_POINT('',(22.75,-0.75,0.));
#96=CARTESIAN_POINT('',(23.5,-0.75,0.));
#97=CARTESIAN_POINT('',(23.5,-2.75545529808154E-16,0.));
#98=CARTESIAN_POINT('',(22.,0.,-11.));
#99=CARTESIAN_POINT('',(22.,-0.75,-11.));
#100=CARTESIAN_POINT('',(22.75,-0.75,-11.75));
#101=CARTESIAN_POINT('',(23.5,-0.75,-12.5));
#102=CARTESIAN_POINT('',(23.5,-2.75545529808154E-16,-12.5));
#103=CARTESIAN_POINT('',(11.,0.,-11.));
#104=CARTESIAN_POINT('',(11.,-0.75,-11.));
#105=CARTESIAN_POINT('',(11.,-0.75,-11.75));
#106=CARTESIAN_POINT('',(11.,-0.75,-12.5));
#107=CARTESIAN_POINT('',(11.,-2.75545529808154E-16,-12.5));
#108=CARTESIAN_POINT('',(1.77635683940025E-15,0.,-11.));
#109=CARTESIAN_POINT('',(1.77635683940025E-15,-0.75,-11.));
#110=CARTESIAN_POINT('',(-0.749999999999998,-0.75,-11.75));
#111=CARTESIAN_POINT('',(-1.5,-0.75,-12.5));
#112=CARTESIAN_POINT('',(-1.5,-2.75545529808154E-16,-12.5));
#113=CARTESIAN_POINT('',(0.,0.,-1.34711147906209E-15));
#114=CARTESIAN_POINT('',(0.,-0.75,-1.34711147906209E-15));
#115=CARTESIAN_POINT('',(-0.75,-0.75,-1.43895998899814E-15));
#116=CARTESIAN_POINT('',(-1.5,-0.75,-1.53080849893419E-15));
#117=CARTESIAN_POINT('',(-1.5,-2.75545529808154E-16,-1.53080849893419E-15));
#118=CARTESIAN_POINT('',(0.,0.,0.));
#119=CARTESIAN_POINT('',(0.,-0.75,0.));
#120=CARTESIAN_POINT('',(-0.75,-0.75,0.));
#121=CARTESIAN_POINT('',(-1.5,-0.75,0.));
#122=CARTESIAN_POINT('',(-1.5,-2.75545529808154E-16,0.));
#123=CARTESIAN_POINT('',(0.,0.,11.));
#124=CARTESIAN_POINT('',(0.,-0.75,11.));
#125=CARTESIAN_POINT('',(-0.75,-0.75,11.75));
#126=CARTESIAN_POINT('',(-1.5,-0.75,12.5));
#127=CARTESIAN_POINT('',(-1.5,-2.75545529808154E-16,12.5));
#128=CARTESIAN_POINT('',(11.,0.,11.));
#129=CARTESIAN_POINT('',(11.,-0.75,11.));
#130=CARTESIAN_POINT('',(11.,-0.75,11.75));
#131=CARTESIAN_POINT('',(11.,-0.75,12.5));
#132=CARTESIAN_POINT('',(11.,-2.75545529808154E-16,12.5));
#133=CARTESIAN_POINT('',(22.,0.,11.));
#134=CARTESIAN_POINT('',(22.,-0.75,11.));
#135=CARTESIAN_POINT('',(22.75,-0.75,11.75));
#136=CARTESIAN_POINT('',(23.5,-0.75,12.5));
#137=CARTESIAN_POINT('',(23.5,-2.75545529808154E-16,12.5));
#138=CARTESIAN_POINT('',(22.,0.,1.34711147906209E-15));
#139=CARTESIAN_POINT('',(22.,-0.75,1.34711147906209E-15));
#140=CARTESIAN_POINT('',(22.75,-0.75,1.43895998899814E-15));
#141=CARTESIAN_POINT('',(23.5,-0.75,1.53080849893419E-15));
#142=CARTESIAN_POINT('',(23.5,-2.75545529808154E-16,1.53080849893419E-15));
#143=CARTESIAN_POINT('',(23.5,-9.18485099360515E-17,0.));
#144=CARTESIAN_POINT('',(23.5,0.75,0.));
#145=CARTESIAN_POINT('',(22.75,0.75,0.));
#146=CARTESIAN_POINT('',(22.,0.75,0.));
#147=CARTESIAN_POINT('',(22.,0.,0.));
#148=CARTESIAN_POINT('',(23.5,-9.18485099360515E-17,-12.5));
#149=CARTESIAN_POINT('',(23.5,0.75,-12.5));
#150=CARTESIAN_POINT('',(22.75,0.75,-11.75));
#151=CARTESIAN_POINT('',(22.,0.75,-11.));
#152=CARTESIAN_POINT('',(22.,0.,-11.));
#153=CARTESIAN_POINT('',(11.,-9.18485099360515E-17,-12.5));
#154=CARTESIAN_POINT('',(11.,0.75,-12.5));
#155=CARTESIAN_POINT('',(11.,0.75,-11.75));
#156=CARTESIAN_POINT('',(11.,0.75,-11.));
#157=CARTESIAN_POINT('',(11.,0.,-11.));
#158=CARTESIAN_POINT('',(-1.5,-9.18485099360515E-17,-12.5));
#159=CARTESIAN_POINT('',(-1.5,0.75,-12.5));
#160=CARTESIAN_POINT('',(-0.749999999999998,0.75,-11.75));
#161=CARTESIAN_POINT('',(1.77635683940025E-15,0.75,-11.));
#162=CARTESIAN_POINT('',(1.77635683940025E-15,0.,-11.));
#163=CARTESIAN_POINT('',(-1.5,-9.18485099360515E-17,-1.53080849893419E-15));
#164=CARTESIAN_POINT('',(-1.5,0.75,-1.53080849893419E-15));
#165=CARTESIAN_POINT('',(-0.75,0.75,-1.43895998899814E-15));
#166=CARTESIAN_POINT('',(0.,0.75,-1.34711147906209E-15));
#167=CARTESIAN_POINT('',(0.,0.,-1.34711147906209E-15));
#168=CARTESIAN_POINT('',(-1.5,-9.18485099360515E-17,0.));
#169=CARTESIAN_POINT('',(-1.5,0.75,0.));
#170=CARTESIAN_POINT('',(-0.75,0.75,0.));
#171=CARTESIAN_POINT('',(0.,0.75,0.));
#172=CARTESIAN_POINT('',(0.,0.,0.));
#173=CARTESIAN_POINT('',(-1.5,-9.18485099360515E-17,12.5));
#174=CARTESIAN_POINT('',(-1.5,0.75,12.5));
#175=CARTESIAN_POINT('',(-0.75,0.75,11.75));
#176=CARTESIAN_POINT('',(0.,0.75,11.));
#177=CARTESIAN_POINT('',(0.,0.,11.));
#178=CARTESIAN_POINT('',(11.,-9.18485099360515E-17,12.5));
#179=CARTESIAN_POINT('',(11.,0.75,12.5));
#180=CARTESIAN_POINT('',(11.,0.75,11.75));
#181=CARTESIAN_POINT('',(11.,0.75,11.));
#182=CARTESIAN_POINT('',(11.,0.,11.));
#183=CARTESIAN_POINT('',(23.5,-9.18485099360515E-17,12.5));
#184=CARTESIAN_POINT('',(23.5,0.75,12.5));
#185=CARTESIAN_POINT('',(22.75,0.75,11.75));
#186=CARTESIAN_POINT('',(22.,0.75,11.));
#187=CARTESIAN_POINT('',(22.,0.,11.));
#188=CARTESIAN_POINT('',(23.5,-9.18485099360515E-17,1.53080849893419E-15));
#189=CARTESIAN_POINT('',(23.5,0.75,1.53080849893419E-15));
#190=CARTESIAN_POINT('',(22.75,0.75,1.43895998899814E-15));
#191=CARTESIAN_POINT('',(22.,0.75,1.34711147906209E-15));
#192=CARTESIAN_POINT('',(22.,0.,1.34711147906209E-15));
#193=CARTESIAN_POINT('',(23.5,-9.18485099360515E-17,0.));
#194=CARTESIAN_POINT('',(-1.5,-9.18485099360515E-17,0.));
#195=CARTESIAN_POINT('',(22.,-9.18485099360515E-17,0.));
#196=CARTESIAN_POINT('',(0.,-9.18485099360515E-17,0.));
#197=CARTESIAN_POINT('',(23.5,-9.18485099360515E-17,0.));
#198=CARTESIAN_POINT('',(23.5,0.,-12.5));
#199=CARTESIAN_POINT('',(11.,-9.18485099360515E-17,-12.5));
#200=CARTESIAN_POINT('',(-1.5,0.,-12.5));
#201=CARTESIAN_POINT('',(-1.5,-9.18485099360515E-17,0.));
#202=CARTESIAN_POINT('',(23.5,-9.18485099360515E-17,0.));
#203=CARTESIAN_POINT('',(23.5,0.75,0.));
#204=CARTESIAN_POINT('',(22.75,0.75,0.));
#205=CARTESIAN_POINT('',(22.,0.75,0.));
#206=CARTESIAN_POINT('',(22.,-9.18485099360515E-17,0.));
#207=CARTESIAN_POINT('',(-1.5,-9.18485099360515E-17,0.));
#208=CARTESIAN_POINT('',(-1.5,0.75,0.));
#209=CARTESIAN_POINT('',(-0.75,0.75,0.));
#210=CARTESIAN_POINT('',(0.,0.75,0.));
#211=CARTESIAN_POINT('',(0.,-9.18485099360515E-17,0.));
#212=CARTESIAN_POINT('',(-1.5,-9.18485099360515E-17,0.));
#213=CARTESIAN_POINT('',(-1.5,0.,12.5));
#214=CARTESIAN_POINT('',(11.,-9.18485099360515E-17,12.5));
#215=CARTESIAN_POINT('',(23.5,0.,12.5));
#216=CARTESIAN_POINT('',(23.5,-9.18485099360515E-17,0.));
#217=CARTESIAN_POINT('',(22.,-9.18485099360515E-17,0.));
#218=CARTESIAN_POINT('',(22.,0.,-11.));
#219=CARTESIAN_POINT('',(11.,-9.18485099360515E-17,-11.));
#220=CARTESIAN_POINT('',(2.51214793389404E-15,0.,-11.));
#221=CARTESIAN_POINT('',(0.,-9.18485099360515E-17,0.));
#222=CARTESIAN_POINT('',(22.,-9.18485099360515E-17,0.));
#223=CARTESIAN_POINT('',(22.,-0.75,0.));
#224=CARTESIAN_POINT('',(22.75,-0.75,0.));
#225=CARTESIAN_POINT('',(23.5,-0.75,0.));
#226=CARTESIAN_POINT('',(23.5,-9.18485099360515E-17,0.));
#227=CARTESIAN_POINT('',(0.,-9.18485099360515E-17,0.));
#228=CARTESIAN_POINT('',(0.,-0.75,0.));
#229=CARTESIAN_POINT('',(-0.75,-0.75,0.));
#230=CARTESIAN_POINT('',(-1.5,-0.75,0.));
#231=CARTESIAN_POINT('',(-1.5,-9.18485099360515E-17,0.));
#232=CARTESIAN_POINT('',(0.,-9.18485099360515E-17,0.));
#233=CARTESIAN_POINT('',(0.,0.,11.));
#234=CARTESIAN_POINT('',(11.,-9.18485099360515E-17,11.));
#235=CARTESIAN_POINT('',(22.,0.,11.));
#236=CARTESIAN_POINT('',(22.,-9.18485099360515E-17,0.));
#237=CARTESIAN_POINT('',(0.,0.,0.));
ENDSEC;
END-ISO-10303-21;
