ISO-10303-21;
HEADER;
/* Generated by software containing ST-Developer
 * from STEP Tools, Inc. (www.steptools.com) 
 */
/* OPTION: using custom schema-name function */

FILE_DESCRIPTION(
/* description */ (''),
/* implementation_level */ '2;1');

FILE_NAME(
/* name */ '2046862',
/* time_stamp */ '2015-05-04T10:22:15+02:00',
/* author */ (''),
/* organization */ (''),
/* preprocessor_version */ 'ST-DEVELOPER v15',
/* originating_system */ '',
/* authorisation */ '');

FILE_SCHEMA (('CONFIG_CONTROL_DESIGN'));
ENDSEC;

DATA;
#10=SHAPE_REPRESENTATION_RELATIONSHIP('','',#184,#12);
#11=MANIFOLD_SOLID_BREP('brep_1',#13);
#12=ADVANCED_BREP_SHAPE_REPRESENTATION('brep_rep_0',(#11,#188),#183);
#13=CLOSED_SHELL('',(#16,#17,#18,#19,#20,#21));
#14=FACE_BOUND('',#31,.T.);
#15=FACE_BOUND('',#33,.T.);
#16=ADVANCED_FACE('',(#22),#94,.T.);
#17=ADVANCED_FACE('',(#23),#95,.T.);
#18=ADVANCED_FACE('',(#24,#14),#92,.T.);
#19=ADVANCED_FACE('',(#25,#15),#93,.T.);
#20=ADVANCED_FACE('',(#26),#96,.T.);
#21=ADVANCED_FACE('',(#27),#97,.T.);
#22=FACE_OUTER_BOUND('',#28,.T.);
#23=FACE_OUTER_BOUND('',#29,.T.);
#24=FACE_OUTER_BOUND('',#30,.T.);
#25=FACE_OUTER_BOUND('',#32,.T.);
#26=FACE_OUTER_BOUND('',#34,.T.);
#27=FACE_OUTER_BOUND('',#35,.T.);
#28=EDGE_LOOP('',(#36,#37,#38,#39));
#29=EDGE_LOOP('',(#40,#41,#42,#43));
#30=EDGE_LOOP('',(#44,#45));
#31=EDGE_LOOP('',(#46,#47));
#32=EDGE_LOOP('',(#48,#49));
#33=EDGE_LOOP('',(#50,#51));
#34=EDGE_LOOP('',(#52,#53,#54,#55));
#35=EDGE_LOOP('',(#56,#57,#58,#59));
#36=ORIENTED_EDGE('',*,*,#66,.T.);
#37=ORIENTED_EDGE('',*,*,#62,.F.);
#38=ORIENTED_EDGE('',*,*,#61,.F.);
#39=ORIENTED_EDGE('',*,*,#60,.T.);
#40=ORIENTED_EDGE('',*,*,#69,.T.);
#41=ORIENTED_EDGE('',*,*,#65,.F.);
#42=ORIENTED_EDGE('',*,*,#64,.F.);
#43=ORIENTED_EDGE('',*,*,#63,.T.);
#44=ORIENTED_EDGE('',*,*,#67,.F.);
#45=ORIENTED_EDGE('',*,*,#60,.F.);
#46=ORIENTED_EDGE('',*,*,#70,.F.);
#47=ORIENTED_EDGE('',*,*,#63,.F.);
#48=ORIENTED_EDGE('',*,*,#62,.T.);
#49=ORIENTED_EDGE('',*,*,#68,.T.);
#50=ORIENTED_EDGE('',*,*,#65,.T.);
#51=ORIENTED_EDGE('',*,*,#71,.T.);
#52=ORIENTED_EDGE('',*,*,#67,.T.);
#53=ORIENTED_EDGE('',*,*,#61,.T.);
#54=ORIENTED_EDGE('',*,*,#68,.F.);
#55=ORIENTED_EDGE('',*,*,#66,.F.);
#56=ORIENTED_EDGE('',*,*,#70,.T.);
#57=ORIENTED_EDGE('',*,*,#64,.T.);
#58=ORIENTED_EDGE('',*,*,#71,.F.);
#59=ORIENTED_EDGE('',*,*,#69,.F.);
#60=EDGE_CURVE('',#84,#88,#72,.T.);
#61=EDGE_CURVE('',#84,#85,#73,.T.);
#62=EDGE_CURVE('',#85,#89,#74,.T.);
#63=EDGE_CURVE('',#86,#90,#75,.T.);
#64=EDGE_CURVE('',#86,#87,#76,.T.);
#65=EDGE_CURVE('',#87,#91,#77,.T.);
#66=EDGE_CURVE('',#88,#89,#78,.T.);
#67=EDGE_CURVE('',#88,#84,#79,.T.);
#68=EDGE_CURVE('',#89,#85,#80,.T.);
#69=EDGE_CURVE('',#90,#91,#81,.T.);
#70=EDGE_CURVE('',#90,#86,#82,.T.);
#71=EDGE_CURVE('',#91,#87,#83,.T.);
#72=(
BOUNDED_CURVE()
B_SPLINE_CURVE(2,(#246,#247,#248,#249,#250),.UNSPECIFIED.,.F.,.F.)
B_SPLINE_CURVE_WITH_KNOTS((3,2,3),(-1.57079669541458,-1.84309842499175E-07,
1.5707963267949),.UNSPECIFIED.)
CURVE()
GEOMETRIC_REPRESENTATION_ITEM()
RATIONAL_B_SPLINE_CURVE((1.,0.707106781186548,1.,0.707106781186548,1.))
REPRESENTATION_ITEM('')
);
#73=(
BOUNDED_CURVE()
B_SPLINE_CURVE(1,(#251,#252),.UNSPECIFIED.,.F.,.F.)
B_SPLINE_CURVE_WITH_KNOTS((2,2),(0.,3000.),.UNSPECIFIED.)
CURVE()
GEOMETRIC_REPRESENTATION_ITEM()
RATIONAL_B_SPLINE_CURVE((1.,1.))
REPRESENTATION_ITEM('')
);
#74=(
BOUNDED_CURVE()
B_SPLINE_CURVE(2,(#253,#254,#255,#256,#257),.UNSPECIFIED.,.F.,.F.)
B_SPLINE_CURVE_WITH_KNOTS((3,2,3),(-1.57079669541458,-1.84309842499175E-07,
1.5707963267949),.UNSPECIFIED.)
CURVE()
GEOMETRIC_REPRESENTATION_ITEM()
RATIONAL_B_SPLINE_CURVE((1.,0.707106781186548,1.,0.707106781186548,1.))
REPRESENTATION_ITEM('')
);
#75=(
BOUNDED_CURVE()
B_SPLINE_CURVE(2,(#258,#259,#260,#261,#262),.UNSPECIFIED.,.F.,.F.)
B_SPLINE_CURVE_WITH_KNOTS((3,2,3),(4.71238934893637,6.28318567573127,7.85398200252617),
 .UNSPECIFIED.)
CURVE()
GEOMETRIC_REPRESENTATION_ITEM()
RATIONAL_B_SPLINE_CURVE((1.,0.707106781186548,1.,0.707106781186548,1.))
REPRESENTATION_ITEM('')
);
#76=(
BOUNDED_CURVE()
B_SPLINE_CURVE(1,(#263,#264),.UNSPECIFIED.,.F.,.F.)
B_SPLINE_CURVE_WITH_KNOTS((2,2),(0.,3000.),.UNSPECIFIED.)
CURVE()
GEOMETRIC_REPRESENTATION_ITEM()
RATIONAL_B_SPLINE_CURVE((1.,1.))
REPRESENTATION_ITEM('')
);
#77=(
BOUNDED_CURVE()
B_SPLINE_CURVE(2,(#265,#266,#267,#268,#269),.UNSPECIFIED.,.F.,.F.)
B_SPLINE_CURVE_WITH_KNOTS((3,2,3),(4.71238934893637,6.28318567573127,7.85398200252617),
 .UNSPECIFIED.)
CURVE()
GEOMETRIC_REPRESENTATION_ITEM()
RATIONAL_B_SPLINE_CURVE((1.,0.707106781186548,1.,0.707106781186548,1.))
REPRESENTATION_ITEM('')
);
#78=(
BOUNDED_CURVE()
B_SPLINE_CURVE(1,(#270,#271),.UNSPECIFIED.,.F.,.F.)
B_SPLINE_CURVE_WITH_KNOTS((2,2),(0.,3000.),.UNSPECIFIED.)
CURVE()
GEOMETRIC_REPRESENTATION_ITEM()
RATIONAL_B_SPLINE_CURVE((1.,1.))
REPRESENTATION_ITEM('')
);
#79=(
BOUNDED_CURVE()
B_SPLINE_CURVE(2,(#272,#273,#274,#275,#276),.UNSPECIFIED.,.F.,.F.)
B_SPLINE_CURVE_WITH_KNOTS((3,2,3),(1.5707963267949,3.14159283786564,4.71238934893637),
 .UNSPECIFIED.)
CURVE()
GEOMETRIC_REPRESENTATION_ITEM()
RATIONAL_B_SPLINE_CURVE((1.,0.707106781186548,1.,0.707106781186548,1.))
REPRESENTATION_ITEM('')
);
#80=(
BOUNDED_CURVE()
B_SPLINE_CURVE(2,(#277,#278,#279,#280,#281),.UNSPECIFIED.,.F.,.F.)
B_SPLINE_CURVE_WITH_KNOTS((3,2,3),(1.5707963267949,3.14159283786564,4.71238934893637),
 .UNSPECIFIED.)
CURVE()
GEOMETRIC_REPRESENTATION_ITEM()
RATIONAL_B_SPLINE_CURVE((1.,0.707106781186548,1.,0.707106781186548,1.))
REPRESENTATION_ITEM('')
);
#81=(
BOUNDED_CURVE()
B_SPLINE_CURVE(1,(#282,#283),.UNSPECIFIED.,.F.,.F.)
B_SPLINE_CURVE_WITH_KNOTS((2,2),(0.,3000.),.UNSPECIFIED.)
CURVE()
GEOMETRIC_REPRESENTATION_ITEM()
RATIONAL_B_SPLINE_CURVE((1.,1.))
REPRESENTATION_ITEM('')
);
#82=(
BOUNDED_CURVE()
B_SPLINE_CURVE(2,(#284,#285,#286,#287,#288),.UNSPECIFIED.,.F.,.F.)
B_SPLINE_CURVE_WITH_KNOTS((3,2,3),(7.85398200252617,9.42477832932106,10.995574656116),
 .UNSPECIFIED.)
CURVE()
GEOMETRIC_REPRESENTATION_ITEM()
RATIONAL_B_SPLINE_CURVE((1.,0.707106781186548,1.,0.707106781186548,1.))
REPRESENTATION_ITEM('')
);
#83=(
BOUNDED_CURVE()
B_SPLINE_CURVE(2,(#289,#290,#291,#292,#293),.UNSPECIFIED.,.F.,.F.)
B_SPLINE_CURVE_WITH_KNOTS((3,2,3),(7.85398200252617,9.42477832932106,10.995574656116),
 .UNSPECIFIED.)
CURVE()
GEOMETRIC_REPRESENTATION_ITEM()
RATIONAL_B_SPLINE_CURVE((1.,0.707106781186548,1.,0.707106781186548,1.))
REPRESENTATION_ITEM('')
);
#84=VERTEX_POINT('',#238);
#85=VERTEX_POINT('',#239);
#86=VERTEX_POINT('',#240);
#87=VERTEX_POINT('',#241);
#88=VERTEX_POINT('',#242);
#89=VERTEX_POINT('',#243);
#90=VERTEX_POINT('',#244);
#91=VERTEX_POINT('',#245);
#92=PLANE('',#186);
#93=PLANE('',#187);
#94=(
BOUNDED_SURFACE()
B_SPLINE_SURFACE(2,1,((#196,#197),(#198,#199),(#200,#201),(#202,#203),(#204,
#205)),.UNSPECIFIED.,.F.,.F.,.F.)
B_SPLINE_SURFACE_WITH_KNOTS((3,2,3),(2,2),(-1.57079669541458,-1.84309842499175E-07,
1.5707963267949),(0.,3000.),.UNSPECIFIED.)
GEOMETRIC_REPRESENTATION_ITEM()
RATIONAL_B_SPLINE_SURFACE(((1.,1.),(0.707106781186548,0.707106781186548),
(1.,1.),(0.707106781186548,0.707106781186548),(1.,1.)))
REPRESENTATION_ITEM('')
SURFACE()
);
#95=(
BOUNDED_SURFACE()
B_SPLINE_SURFACE(2,1,((#206,#207),(#208,#209),(#210,#211),(#212,#213),(#214,
#215)),.UNSPECIFIED.,.F.,.F.,.F.)
B_SPLINE_SURFACE_WITH_KNOTS((3,2,3),(2,2),(4.71238934893637,6.28318567573127,
7.85398200252617),(0.,3000.),.UNSPECIFIED.)
GEOMETRIC_REPRESENTATION_ITEM()
RATIONAL_B_SPLINE_SURFACE(((1.,1.),(0.707106781186548,0.707106781186548),
(1.,1.),(0.707106781186548,0.707106781186548),(1.,1.)))
REPRESENTATION_ITEM('')
SURFACE()
);
#96=(
BOUNDED_SURFACE()
B_SPLINE_SURFACE(2,1,((#218,#219),(#220,#221),(#222,#223),(#224,#225),(#226,
#227)),.UNSPECIFIED.,.F.,.F.,.F.)
B_SPLINE_SURFACE_WITH_KNOTS((3,2,3),(2,2),(1.5707963267949,3.14159283786564,
4.71238934893637),(0.,3000.),.UNSPECIFIED.)
GEOMETRIC_REPRESENTATION_ITEM()
RATIONAL_B_SPLINE_SURFACE(((1.,1.),(0.707106781186548,0.707106781186548),
(1.,1.),(0.707106781186548,0.707106781186548),(1.,1.)))
REPRESENTATION_ITEM('')
SURFACE()
);
#97=(
BOUNDED_SURFACE()
B_SPLINE_SURFACE(2,1,((#228,#229),(#230,#231),(#232,#233),(#234,#235),(#236,
#237)),.UNSPECIFIED.,.F.,.F.,.F.)
B_SPLINE_SURFACE_WITH_KNOTS((3,2,3),(2,2),(7.85398200252617,9.42477832932106,
10.995574656116),(0.,3000.),.UNSPECIFIED.)
GEOMETRIC_REPRESENTATION_ITEM()
RATIONAL_B_SPLINE_SURFACE(((1.,1.),(0.707106781186548,0.707106781186548),
(1.,1.),(0.707106781186548,0.707106781186548),(1.,1.)))
REPRESENTATION_ITEM('')
SURFACE()
);
#98=SHAPE_DEFINITION_REPRESENTATION(#99,#184);
#99=PRODUCT_DEFINITION_SHAPE('Document','',#101);
#100=PRODUCT_DEFINITION_CONTEXT('3D Mechanical Parts',#173,'design');
#101=PRODUCT_DEFINITION('A','First version',#143,#100);
#102=DATE_TIME_ROLE('classification_date');
#103=DATE_TIME_ROLE('creation_date');
#104=APPLIED_DATE_AND_TIME_ASSIGNMENT(#128,#102,(#107));
#105=APPLIED_DATE_AND_TIME_ASSIGNMENT(#130,#103,(#101));
#106=SECURITY_CLASSIFICATION_LEVEL('unclassified');
#107=SECURITY_CLASSIFICATION('A','Security for version',#106);
#108=APPLIED_SECURITY_CLASSIFICATION_ASSIGNMENT(#107,(#143));
#109=APPROVAL_ROLE('Version approval');
#110=APPROVAL_ROLE('Version Security approval');
#111=APPROVAL_ROLE('Definition approval');
#112=APPROVAL_PERSON_ORGANIZATION(#161,#137,#109);
#113=APPROVAL_PERSON_ORGANIZATION(#162,#138,#110);
#114=APPROVAL_PERSON_ORGANIZATION(#165,#139,#111);
#115=COORDINATED_UNIVERSAL_TIME_OFFSET(5,0,.BEHIND.);
#116=LOCAL_TIME(0,0,0.,#115);
#117=LOCAL_TIME(0,0,0.,#115);
#118=LOCAL_TIME(0,0,0.,#115);
#119=LOCAL_TIME(0,0,0.,#115);
#120=LOCAL_TIME(0,0,0.,#115);
#121=CALENDAR_DATE(1999,1,1);
#122=CALENDAR_DATE(1999,1,1);
#123=CALENDAR_DATE(1999,1,1);
#124=CALENDAR_DATE(1999,1,1);
#125=CALENDAR_DATE(1999,1,1);
#126=DATE_AND_TIME(#121,#116);
#127=DATE_AND_TIME(#122,#117);
#128=DATE_AND_TIME(#123,#118);
#129=DATE_AND_TIME(#124,#119);
#130=DATE_AND_TIME(#125,#120);
#131=APPROVAL_DATE_TIME(#126,#137);
#132=APPROVAL_DATE_TIME(#127,#138);
#133=APPROVAL_DATE_TIME(#129,#139);
#134=APPROVAL_STATUS('not_yet_approved');
#135=APPROVAL_STATUS('not_yet_approved');
#136=APPROVAL_STATUS('approved');
#137=APPROVAL(#134,'Version approval');
#138=APPROVAL(#135,'Version Security approval');
#139=APPROVAL(#136,'Definition approval');
#140=APPLIED_APPROVAL_ASSIGNMENT(#137,(#143));
#141=APPLIED_APPROVAL_ASSIGNMENT(#138,(#107));
#142=APPLIED_APPROVAL_ASSIGNMENT(#139,(#101));
#143=PRODUCT_DEFINITION_FORMATION_WITH_SPECIFIED_SOURCE('A',
'First version',#175,.MADE.);
#144=PERSON_AND_ORGANIZATION_ROLE('design_owner');
#145=PERSON_AND_ORGANIZATION_ROLE('creator');
#146=PERSON_AND_ORGANIZATION_ROLE('design_supplier');
#147=PERSON_AND_ORGANIZATION_ROLE('classification_officer');
#148=PERSON_AND_ORGANIZATION_ROLE('creator');
#149=ORGANIZATION('STI','lab','lab');
#150=ORGANIZATION('STI','unknown','unknown');
#151=ORGANIZATION('STI','unknown','unknown');
#152=ORGANIZATION('STI','unknown','unknown');
#153=ORGANIZATION('STI','unknown','unknown');
#154=ORGANIZATION('STI','unknown','unknown');
#155=ORGANIZATION('STI','unknown','unknown');
#156=PERSON('1','Box','vc60',$,$,$);
#157=PERSON('2','last','first',$,$,$);
#158=PERSON('3','President','Mr.',$,$,$);
#159=PERSON_AND_ORGANIZATION(#156,#149);
#160=PERSON_AND_ORGANIZATION(#157,#150);
#161=PERSON_AND_ORGANIZATION(#158,#151);
#162=PERSON_AND_ORGANIZATION(#158,#152);
#163=PERSON_AND_ORGANIZATION(#158,#153);
#164=PERSON_AND_ORGANIZATION(#157,#154);
#165=PERSON_AND_ORGANIZATION(#158,#155);
#166=APPLIED_PERSON_AND_ORGANIZATION_ASSIGNMENT(#159,#144,(#175));
#167=APPLIED_PERSON_AND_ORGANIZATION_ASSIGNMENT(#160,#145,(#143));
#168=APPLIED_PERSON_AND_ORGANIZATION_ASSIGNMENT(#160,#146,(#143));
#169=APPLIED_PERSON_AND_ORGANIZATION_ASSIGNMENT(#163,#147,(#107));
#170=APPLIED_PERSON_AND_ORGANIZATION_ASSIGNMENT(#164,#148,(#101));
#171=PRODUCT_RELATED_PRODUCT_CATEGORY('detail','detail',(#175));
#172=APPLICATION_PROTOCOL_DEFINITION('International Standard',
'config_control_design',1994,#173);
#173=APPLICATION_CONTEXT(
'configuration controlled 3d designs of mechanical parts and assemblie
s');
#174=PRODUCT_CONTEXT('3D Mechanical Parts',#173,'mechanical');
#175=PRODUCT('Document','Document','Rhino converted to STEP',(#174));
#176=(
LENGTH_UNIT()
NAMED_UNIT(*)
SI_UNIT(.MILLI.,.METRE.)
);
#177=(
NAMED_UNIT(*)
PLANE_ANGLE_UNIT()
SI_UNIT($,.RADIAN.)
);
#178=DIMENSIONAL_EXPONENTS(0.,0.,0.,0.,0.,0.,0.);
#179=PLANE_ANGLE_MEASURE_WITH_UNIT(PLANE_ANGLE_MEASURE(0.01745329252),#177);
#180=(
CONVERSION_BASED_UNIT('DEGREES',#179)
NAMED_UNIT(#178)
PLANE_ANGLE_UNIT()
);
#181=(
NAMED_UNIT(*)
SI_UNIT($,.STERADIAN.)
SOLID_ANGLE_UNIT()
);
#182=UNCERTAINTY_MEASURE_WITH_UNIT(LENGTH_MEASURE(0.0001),#176,
'DISTANCE_ACCURACY_VALUE',
'Maximum model space distance between geometric entities at asserted c
onnectivities');
#183=(
GEOMETRIC_REPRESENTATION_CONTEXT(3)
GLOBAL_UNCERTAINTY_ASSIGNED_CONTEXT((#182))
GLOBAL_UNIT_ASSIGNED_CONTEXT((#181,#180,#176))
REPRESENTATION_CONTEXT('ID1','3D')
);
#184=SHAPE_REPRESENTATION('Document',(#185,#188),#183);
#185=AXIS2_PLACEMENT_3D('',#195,#189,#190);
#186=AXIS2_PLACEMENT_3D('',#216,#191,$);
#187=AXIS2_PLACEMENT_3D('',#217,#192,$);
#188=AXIS2_PLACEMENT_3D('',#294,#193,#194);
#189=DIRECTION('',(0.,0.,1.));
#190=DIRECTION('',(1.,0.,0.));
#191=DIRECTION('',(0.,0.,-1.));
#192=DIRECTION('',(0.,0.,1.));
#193=DIRECTION('',(0.,0.,1.));
#194=DIRECTION('',(1.,0.,0.));
#195=CARTESIAN_POINT('',(0.,0.,0.));
#196=CARTESIAN_POINT('',(-9.99999999999999,-2.46519032881566E-31,-3000.));
#197=CARTESIAN_POINT('',(-9.99999999999999,6.82121026329696E-11,0.));
#198=CARTESIAN_POINT('',(-9.99999999999998,-10.,-3000.));
#199=CARTESIAN_POINT('',(-9.99999999999998,-9.99999999993178,0.));
#200=CARTESIAN_POINT('',(1.06581410364015E-14,-9.99999999999999,-3000.));
#201=CARTESIAN_POINT('',(1.06581410364015E-14,-9.99999999993178,0.));
#202=CARTESIAN_POINT('',(10.,-9.99999999999999,-3000.));
#203=CARTESIAN_POINT('',(10.,-9.99999999993178,0.));
#204=CARTESIAN_POINT('',(10.,1.22464679914735E-15,-3000.));
#205=CARTESIAN_POINT('',(10.,6.82133272797688E-11,0.));
#206=CARTESIAN_POINT('',(-8.5,-1.04094977927525E-15,-3000.));
#207=CARTESIAN_POINT('',(-8.5,6.82110616831903E-11,0.));
#208=CARTESIAN_POINT('',(-8.5,8.5,-3000.));
#209=CARTESIAN_POINT('',(-8.5,8.50000000006821,0.));
#210=CARTESIAN_POINT('',(0.,8.5,-3000.));
#211=CARTESIAN_POINT('',(0.,8.50000000006821,0.));
#212=CARTESIAN_POINT('',(8.5,8.5,-3000.));
#213=CARTESIAN_POINT('',(8.5,8.50000000006821,0.));
#214=CARTESIAN_POINT('',(8.5,0.,-3000.));
#215=CARTESIAN_POINT('',(8.5,6.82121026329696E-11,0.));
#216=CARTESIAN_POINT('',(12.5,12.5,-3000.));
#217=CARTESIAN_POINT('',(12.5,12.5000000000682,0.));
#218=CARTESIAN_POINT('',(10.,1.22464679914735E-15,-3000.));
#219=CARTESIAN_POINT('',(10.,6.82133272797688E-11,0.));
#220=CARTESIAN_POINT('',(10.,10.,-3000.));
#221=CARTESIAN_POINT('',(10.,10.0000000000682,0.));
#222=CARTESIAN_POINT('',(8.88178419700125E-15,10.,-3000.));
#223=CARTESIAN_POINT('',(8.88178419700125E-15,10.0000000000682,0.));
#224=CARTESIAN_POINT('',(-9.99999999999999,9.99999999999999,-3000.));
#225=CARTESIAN_POINT('',(-9.99999999999999,10.0000000000682,0.));
#226=CARTESIAN_POINT('',(-9.99999999999999,-2.46519032881566E-31,-3000.));
#227=CARTESIAN_POINT('',(-9.99999999999999,6.82121026329696E-11,0.));
#228=CARTESIAN_POINT('',(8.5,0.,-3000.));
#229=CARTESIAN_POINT('',(8.5,6.82121026329696E-11,0.));
#230=CARTESIAN_POINT('',(8.5,-8.5,-3000.));
#231=CARTESIAN_POINT('',(8.5,-8.49999999993179,0.));
#232=CARTESIAN_POINT('',(0.,-8.5,-3000.));
#233=CARTESIAN_POINT('',(0.,-8.49999999993179,0.));
#234=CARTESIAN_POINT('',(-8.5,-8.5,-3000.));
#235=CARTESIAN_POINT('',(-8.5,-8.49999999993179,0.));
#236=CARTESIAN_POINT('',(-8.5,-1.04094977927525E-15,-3000.));
#237=CARTESIAN_POINT('',(-8.5,6.82110616831903E-11,0.));
#238=CARTESIAN_POINT('',(-9.99999999999999,-2.46519032881566E-31,-3000.));
#239=CARTESIAN_POINT('',(-9.99999999999999,6.82121026329696E-11,0.));
#240=CARTESIAN_POINT('',(-8.5,-1.04094977927525E-15,-3000.));
#241=CARTESIAN_POINT('',(-8.5,6.82110616831903E-11,0.));
#242=CARTESIAN_POINT('',(10.,1.22464679914735E-15,-3000.));
#243=CARTESIAN_POINT('',(10.,6.82133272797688E-11,0.));
#244=CARTESIAN_POINT('',(8.5,0.,-3000.));
#245=CARTESIAN_POINT('',(8.5,6.82121026329696E-11,0.));
#246=CARTESIAN_POINT('',(-9.99999999999999,-2.46519032881566E-31,-3000.));
#247=CARTESIAN_POINT('',(-9.99999999999998,-10.,-3000.));
#248=CARTESIAN_POINT('',(1.06581410364015E-14,-9.99999999999999,-3000.));
#249=CARTESIAN_POINT('',(10.,-9.99999999999999,-3000.));
#250=CARTESIAN_POINT('',(10.,1.22464679914735E-15,-3000.));
#251=CARTESIAN_POINT('',(-9.99999999999999,-2.46519032881566E-31,-3000.));
#252=CARTESIAN_POINT('',(-9.99999999999999,6.82121026329696E-11,0.));
#253=CARTESIAN_POINT('',(-9.99999999999999,6.82121026329696E-11,0.));
#254=CARTESIAN_POINT('',(-9.99999999999998,-9.99999999993178,0.));
#255=CARTESIAN_POINT('',(1.06581410364015E-14,-9.99999999993178,0.));
#256=CARTESIAN_POINT('',(10.,-9.99999999993178,0.));
#257=CARTESIAN_POINT('',(10.,6.82133272797688E-11,0.));
#258=CARTESIAN_POINT('',(-8.5,-1.04094977927525E-15,-3000.));
#259=CARTESIAN_POINT('',(-8.5,8.5,-3000.));
#260=CARTESIAN_POINT('',(0.,8.5,-3000.));
#261=CARTESIAN_POINT('',(8.5,8.5,-3000.));
#262=CARTESIAN_POINT('',(8.5,0.,-3000.));
#263=CARTESIAN_POINT('',(-8.5,-1.04094977927525E-15,-3000.));
#264=CARTESIAN_POINT('',(-8.5,6.82110616831903E-11,0.));
#265=CARTESIAN_POINT('',(-8.5,6.82110616831903E-11,0.));
#266=CARTESIAN_POINT('',(-8.5,8.50000000006821,0.));
#267=CARTESIAN_POINT('',(0.,8.50000000006821,0.));
#268=CARTESIAN_POINT('',(8.5,8.50000000006821,0.));
#269=CARTESIAN_POINT('',(8.5,6.82121026329696E-11,0.));
#270=CARTESIAN_POINT('',(10.,1.22464679914735E-15,-3000.));
#271=CARTESIAN_POINT('',(10.,6.82133272797688E-11,0.));
#272=CARTESIAN_POINT('',(10.,1.22464679914735E-15,-3000.));
#273=CARTESIAN_POINT('',(10.,10.,-3000.));
#274=CARTESIAN_POINT('',(8.88178419700125E-15,10.,-3000.));
#275=CARTESIAN_POINT('',(-9.99999999999999,9.99999999999999,-3000.));
#276=CARTESIAN_POINT('',(-9.99999999999999,-2.46519032881566E-31,-3000.));
#277=CARTESIAN_POINT('',(10.,6.82133272797688E-11,0.));
#278=CARTESIAN_POINT('',(10.,10.0000000000682,0.));
#279=CARTESIAN_POINT('',(8.88178419700125E-15,10.0000000000682,0.));
#280=CARTESIAN_POINT('',(-9.99999999999999,10.0000000000682,0.));
#281=CARTESIAN_POINT('',(-9.99999999999999,6.82121026329696E-11,0.));
#282=CARTESIAN_POINT('',(8.5,0.,-3000.));
#283=CARTESIAN_POINT('',(8.5,6.82121026329696E-11,0.));
#284=CARTESIAN_POINT('',(8.5,0.,-3000.));
#285=CARTESIAN_POINT('',(8.5,-8.5,-3000.));
#286=CARTESIAN_POINT('',(0.,-8.5,-3000.));
#287=CARTESIAN_POINT('',(-8.5,-8.5,-3000.));
#288=CARTESIAN_POINT('',(-8.5,-1.04094977927525E-15,-3000.));
#289=CARTESIAN_POINT('',(8.5,6.82121026329696E-11,0.));
#290=CARTESIAN_POINT('',(8.5,-8.49999999993179,0.));
#291=CARTESIAN_POINT('',(0.,-8.49999999993179,0.));
#292=CARTESIAN_POINT('',(-8.5,-8.49999999993179,0.));
#293=CARTESIAN_POINT('',(-8.5,6.82110616831903E-11,0.));
#294=CARTESIAN_POINT('',(0.,0.,0.));
ENDSEC;
END-ISO-10303-21;
