ISO-10303-21;
HEADER;
FILE_DESCRIPTION (( 'STEP AP214' ),
    '1' );
FILE_NAME ('2046845.stp',
    '2023-09-08T12:00:19',
    ( '' ),
    ( '' ),
    'SwSTEP 2.0',
    'SolidWorks 2022',
    '' );
FILE_SCHEMA (( 'AUTOMOTIVE_DESIGN' ));
ENDSEC;

DATA;
#1 = CIRCLE ( 'NONE', #87, 25.00000000000000000 ) ;
#2 = FACE_OUTER_BOUND ( 'NONE', #5, .T. ) ;
#3 = PRODUCT ( '2046845', '2046845', '', ( #34 ) ) ;
#4 = EDGE_LOOP ( 'NONE', ( #66 ) ) ;
#5 = EDGE_LOOP ( 'NONE', ( #6 ) ) ;
#6 = ORIENTED_EDGE ( 'NONE', *, *, #118, .F. ) ;
#7 = DIRECTION ( 'NONE',  ( 1.000000000000000000, 0.000000000000000000, 0.000000000000000000 ) ) ;
#8 = ADVANCED_BREP_SHAPE_REPRESENTATION ( '2046845', ( #45, #54 ), #124 ) ;
#9 = COLOUR_RGB ( '',0.7529411764705882248, 0.7529411764705882248, 0.7529411764705882248 ) ;
#10 = FACE_OUTER_BOUND ( 'NONE', #20, .T. ) ;
#11 = UNCERTAINTY_MEASURE_WITH_UNIT (LENGTH_MEASURE( 1.000000000000000082E-05 ), #65, 'distance_accuracy_value', 'NONE');
#12 = DIRECTION ( 'NONE',  ( 1.000000000000000000, 0.000000000000000000, 0.000000000000000000 ) ) ;
#13 = PRODUCT_DEFINITION_SHAPE ( 'NONE', 'NONE',  #100 ) ;
#14 = AXIS2_PLACEMENT_3D ( 'NONE', #26, #52, #12 ) ;
#15 = FACE_OUTER_BOUND ( 'NONE', #23, .T. ) ;
#16 = APPLICATION_CONTEXT ( 'automotive_design' ) ;
#17 = FACE_BOUND ( 'NONE', #22, .T. ) ;
#18 = CARTESIAN_POINT ( 'NONE',  ( 0.000000000000000000, 0.000000000000000000, -3000.000000000000000 ) ) ;
#19 = APPLICATION_CONTEXT ( 'automotive_design' ) ;
#20 = EDGE_LOOP ( 'NONE', ( #28 ) ) ;
#21 = CARTESIAN_POINT ( 'NONE',  ( 0.000000000000000000, 0.000000000000000000, 0.000000000000000000 ) ) ;
#22 = EDGE_LOOP ( 'NONE', ( #89 ) ) ;
#23 = EDGE_LOOP ( 'NONE', ( #119 ) ) ;
#24 =( NAMED_UNIT ( * ) PLANE_ANGLE_UNIT ( ) SI_UNIT ( $, .RADIAN. ) );
#25 = AXIS2_PLACEMENT_3D ( 'NONE', #129, #41, #80 ) ;
#26 = CARTESIAN_POINT ( 'NONE',  ( 0.000000000000000000, 0.000000000000000000, -3000.000000000000000 ) ) ;
#27 = DIRECTION ( 'NONE',  ( 0.000000000000000000, 0.000000000000000000, 1.000000000000000000 ) ) ;
#28 = ORIENTED_EDGE ( 'NONE', *, *, #38, .T. ) ;
#29 = DIRECTION ( 'NONE',  ( 0.000000000000000000, 0.000000000000000000, 1.000000000000000000 ) ) ;
#30 = FILL_AREA_STYLE ('',( #77 ) ) ;
#31 = MECHANICAL_DESIGN_GEOMETRIC_PRESENTATION_REPRESENTATION (  '', ( #125 ), #112 ) ;
#32 = DIRECTION ( 'NONE',  ( 0.000000000000000000, 0.000000000000000000, 1.000000000000000000 ) ) ;
#33 = VERTEX_POINT ( 'NONE', #95 ) ;
#34 = PRODUCT_CONTEXT ( 'NONE', #19, 'mechanical' ) ;
#35 = VERTEX_POINT ( 'NONE', #82 ) ;
#36 = PRESENTATION_LAYER_ASSIGNMENT (  '', '', ( #109 ) ) ;
#37 = CIRCLE ( 'NONE', #51, 23.50000000000000355 ) ;
#38 = EDGE_CURVE ( 'NONE', #133, #133, #37, .T. ) ;
#39 = SURFACE_SIDE_STYLE ('',( #110 ) ) ;
#40 = CARTESIAN_POINT ( 'NONE',  ( 0.000000000000000000, 0.000000000000000000, 0.000000000000000000 ) ) ;
#41 = DIRECTION ( 'NONE',  ( 0.000000000000000000, 0.000000000000000000, 1.000000000000000000 ) ) ;
#42 = APPLICATION_PROTOCOL_DEFINITION ( 'draft international standard', 'automotive_design', 1998, #19 ) ;
#43 = VERTEX_POINT ( 'NONE', #123 ) ;
#44 = FILL_AREA_STYLE ('',( #116 ) ) ;
#45 = MANIFOLD_SOLID_BREP ( 'Rohr St', #88 ) ;
#46 = SURFACE_STYLE_USAGE ( .BOTH. , #39 ) ;
#47 = PRESENTATION_STYLE_ASSIGNMENT (( #46 ) ) ;
#48 = DIRECTION ( 'NONE',  ( 0.000000000000000000, 0.000000000000000000, 1.000000000000000000 ) ) ;
#49 = DIRECTION ( 'NONE',  ( 1.000000000000000000, 0.000000000000000000, 0.000000000000000000 ) ) ;
#50 =( NAMED_UNIT ( * ) SI_UNIT ( $, .STERADIAN. ) SOLID_ANGLE_UNIT ( ) );
#51 = AXIS2_PLACEMENT_3D ( 'NONE', #40, #120, #68 ) ;
#52 = DIRECTION ( 'NONE',  ( 0.000000000000000000, 0.000000000000000000, 1.000000000000000000 ) ) ;
#53 = UNCERTAINTY_MEASURE_WITH_UNIT (LENGTH_MEASURE( 1.000000000000000082E-05 ), #111, 'distance_accuracy_value', 'NONE');
#54 = AXIS2_PLACEMENT_3D ( 'NONE', #21, #63, #7 ) ;
#55 = PRODUCT_DEFINITION_CONTEXT ( 'detailed design', #16, 'design' ) ;
#56 = ADVANCED_FACE ( 'NONE', ( #58, #15 ), #103, .T. ) ;
#57 = AXIS2_PLACEMENT_3D ( 'NONE', #122, #27, #99 ) ;
#58 = FACE_BOUND ( 'NONE', #62, .T. ) ;
#59 = ORIENTED_EDGE ( 'NONE', *, *, #38, .F. ) ;
#60 = ORIENTED_EDGE ( 'NONE', *, *, #108, .T. ) ;
#61 = DIRECTION ( 'NONE',  ( 1.000000000000000000, 0.000000000000000000, -0.000000000000000000 ) ) ;
#62 = EDGE_LOOP ( 'NONE', ( #59 ) ) ;
#63 = DIRECTION ( 'NONE',  ( 0.000000000000000000, 0.000000000000000000, 1.000000000000000000 ) ) ;
#64 = SHAPE_DEFINITION_REPRESENTATION ( #13, #8 ) ;
#65 =( LENGTH_UNIT ( ) NAMED_UNIT ( * ) SI_UNIT ( .MILLI., .METRE. ) );
#66 = ORIENTED_EDGE ( 'NONE', *, *, #127, .F. ) ;
#67 = MECHANICAL_DESIGN_GEOMETRIC_PRESENTATION_REPRESENTATION (  '', ( #109 ), #106 ) ;
#68 = DIRECTION ( 'NONE',  ( 1.000000000000000000, 0.000000000000000000, 0.000000000000000000 ) ) ;
#69 = FACE_OUTER_BOUND ( 'NONE', #4, .T. ) ;
#70 = PRESENTATION_LAYER_ASSIGNMENT (  '', '', ( #125 ) ) ;
#71 = PLANE ( 'NONE',  #130 ) ;
#72 = ADVANCED_FACE ( 'NONE', ( #91, #69 ), #78, .T. ) ;
#73 = UNCERTAINTY_MEASURE_WITH_UNIT (LENGTH_MEASURE( 1.000000000000000082E-05 ), #74, 'distance_accuracy_value', 'NONE');
#74 =( LENGTH_UNIT ( ) NAMED_UNIT ( * ) SI_UNIT ( .MILLI., .METRE. ) );
#75 = AXIS2_PLACEMENT_3D ( 'NONE', #101, #48, #90 ) ;
#76 = PRODUCT_DEFINITION_FORMATION_WITH_SPECIFIED_SOURCE ( 'ANY', '', #3, .NOT_KNOWN. ) ;
#77 = FILL_AREA_STYLE_COLOUR ( '', #9 ) ;
#78 = CYLINDRICAL_SURFACE ( 'NONE', #97, 25.00000000000000000 ) ;
#79 = EDGE_LOOP ( 'NONE', ( #98 ) ) ;
#80 = DIRECTION ( 'NONE',  ( 1.000000000000000000, 0.000000000000000000, 0.000000000000000000 ) ) ;
#81 = CIRCLE ( 'NONE', #57, 25.00000000000000000 ) ;
#82 = CARTESIAN_POINT ( 'NONE',  ( 23.50000000000000355, 0.000000000000000000, -3000.000000000000000 ) ) ;
#83 = APPLICATION_PROTOCOL_DEFINITION ( 'draft international standard', 'automotive_design', 1998, #16 ) ;
#84 = PRODUCT_RELATED_PRODUCT_CATEGORY ( 'part', '', ( #3 ) ) ;
#85 = SURFACE_SIDE_STYLE ('',( #104 ) ) ;
#86 =( NAMED_UNIT ( * ) SI_UNIT ( $, .STERADIAN. ) SOLID_ANGLE_UNIT ( ) );
#87 = AXIS2_PLACEMENT_3D ( 'NONE', #113, #92, #49 ) ;
#88 = CLOSED_SHELL ( 'NONE', ( #72, #115, #56, #134 ) ) ;
#89 = ORIENTED_EDGE ( 'NONE', *, *, #118, .T. ) ;
#90 = DIRECTION ( 'NONE',  ( 1.000000000000000000, 0.000000000000000000, -0.000000000000000000 ) ) ;
#91 = FACE_OUTER_BOUND ( 'NONE', #128, .T. ) ;
#92 = DIRECTION ( 'NONE',  ( 0.000000000000000000, 0.000000000000000000, 1.000000000000000000 ) ) ;
#93 =( NAMED_UNIT ( * ) PLANE_ANGLE_UNIT ( ) SI_UNIT ( $, .RADIAN. ) );
#94 = CIRCLE ( 'NONE', #25, 23.50000000000000355 ) ;
#95 = CARTESIAN_POINT ( 'NONE',  ( 25.00000000000000000, 0.000000000000000000, -3000.000000000000000 ) ) ;
#96 = PRESENTATION_STYLE_ASSIGNMENT (( #131 ) ) ;
#97 = AXIS2_PLACEMENT_3D ( 'NONE', #102, #29, #126 ) ;
#98 = ORIENTED_EDGE ( 'NONE', *, *, #108, .F. ) ;
#99 = DIRECTION ( 'NONE',  ( 1.000000000000000000, 0.000000000000000000, 0.000000000000000000 ) ) ;
#100 = PRODUCT_DEFINITION ( 'UNKNOWN', '', #76, #55 ) ;
#101 = CARTESIAN_POINT ( 'NONE',  ( 0.000000000000000000, 0.000000000000000000, 0.000000000000000000 ) ) ;
#102 = CARTESIAN_POINT ( 'NONE',  ( 0.000000000000000000, 0.000000000000000000, -3000.000000000000000 ) ) ;
#103 = PLANE ( 'NONE',  #75 ) ;
#104 = SURFACE_STYLE_FILL_AREA ( #44 ) ;
#105 = CARTESIAN_POINT ( 'NONE',  ( 23.50000000000000355, 0.000000000000000000, 0.000000000000000000 ) ) ;
#106 =( GEOMETRIC_REPRESENTATION_CONTEXT ( 3 ) GLOBAL_UNCERTAINTY_ASSIGNED_CONTEXT ( ( #11 ) ) GLOBAL_UNIT_ASSIGNED_CONTEXT ( ( #65, #132, #86 ) ) REPRESENTATION_CONTEXT ( 'NONE', 'WORKASPACE' ) );
#107 = CYLINDRICAL_SURFACE ( 'NONE', #14, 23.50000000000000355 ) ;
#108 = EDGE_CURVE ( 'NONE', #33, #33, #1, .T. ) ;
#109 = STYLED_ITEM ( 'NONE', ( #96 ), #8 ) ;
#110 = SURFACE_STYLE_FILL_AREA ( #30 ) ;
#111 =( LENGTH_UNIT ( ) NAMED_UNIT ( * ) SI_UNIT ( .MILLI., .METRE. ) );
#112 =( GEOMETRIC_REPRESENTATION_CONTEXT ( 3 ) GLOBAL_UNCERTAINTY_ASSIGNED_CONTEXT ( ( #53 ) ) GLOBAL_UNIT_ASSIGNED_CONTEXT ( ( #111, #93, #114 ) ) REPRESENTATION_CONTEXT ( 'NONE', 'WORKASPACE' ) );
#113 = CARTESIAN_POINT ( 'NONE',  ( 0.000000000000000000, 0.000000000000000000, -3000.000000000000000 ) ) ;
#114 =( NAMED_UNIT ( * ) SI_UNIT ( $, .STERADIAN. ) SOLID_ANGLE_UNIT ( ) );
#115 = ADVANCED_FACE ( 'NONE', ( #17, #121 ), #71, .F. ) ;
#116 = FILL_AREA_STYLE_COLOUR ( '', #117 ) ;
#117 = COLOUR_RGB ( '',0.7529411764705882248, 0.7529411764705882248, 0.7529411764705882248 ) ;
#118 = EDGE_CURVE ( 'NONE', #35, #35, #94, .T. ) ;
#119 = ORIENTED_EDGE ( 'NONE', *, *, #127, .T. ) ;
#120 = DIRECTION ( 'NONE',  ( 0.000000000000000000, 0.000000000000000000, 1.000000000000000000 ) ) ;
#121 = FACE_OUTER_BOUND ( 'NONE', #79, .T. ) ;
#122 = CARTESIAN_POINT ( 'NONE',  ( 0.000000000000000000, 0.000000000000000000, 0.000000000000000000 ) ) ;
#123 = CARTESIAN_POINT ( 'NONE',  ( 25.00000000000000000, 0.000000000000000000, 0.000000000000000000 ) ) ;
#124 =( GEOMETRIC_REPRESENTATION_CONTEXT ( 3 ) GLOBAL_UNCERTAINTY_ASSIGNED_CONTEXT ( ( #73 ) ) GLOBAL_UNIT_ASSIGNED_CONTEXT ( ( #74, #24, #50 ) ) REPRESENTATION_CONTEXT ( 'NONE', 'WORKASPACE' ) );
#125 = STYLED_ITEM ( 'NONE', ( #47 ), #45 ) ;
#126 = DIRECTION ( 'NONE',  ( 1.000000000000000000, 0.000000000000000000, 0.000000000000000000 ) ) ;
#127 = EDGE_CURVE ( 'NONE', #43, #43, #81, .T. ) ;
#128 = EDGE_LOOP ( 'NONE', ( #60 ) ) ;
#129 = CARTESIAN_POINT ( 'NONE',  ( 0.000000000000000000, 0.000000000000000000, -3000.000000000000000 ) ) ;
#130 = AXIS2_PLACEMENT_3D ( 'NONE', #18, #32, #61 ) ;
#131 = SURFACE_STYLE_USAGE ( .BOTH. , #85 ) ;
#132 =( NAMED_UNIT ( * ) PLANE_ANGLE_UNIT ( ) SI_UNIT ( $, .RADIAN. ) );
#133 = VERTEX_POINT ( 'NONE', #105 ) ;
#134 = ADVANCED_FACE ( 'NONE', ( #2, #10 ), #107, .F. ) ;
ENDSEC;
END-ISO-10303-21;
