ISO-10303-21;
HEADER;
FILE_DESCRIPTION (( 'STEP AP214' ),
    '1' );
FILE_NAME ('2046620.stp',
    '2022-02-25T07:32:24',
    ( '' ),
    ( '' ),
    'SwSTEP 2.0',
    'SolidWorks 2020',
    '' );
FILE_SCHEMA (( 'AUTOMOTIVE_DESIGN' ));
ENDSEC;

DATA;
#1 = AXIS2_PLACEMENT_3D ( 'NONE', #260, #112, #82 ) ;
#2 = EDGE_LOOP ( 'NONE', ( #214 ) ) ;
#3 =( GEOMETRIC_REPRESENTATION_CONTEXT ( 3 ) GLOBAL_UNCERTAINTY_ASSIGNED_CONTEXT ( ( #209 ) ) GLOBAL_UNIT_ASSIGNED_CONTEXT ( ( #154, #177, #225 ) ) REPRESENTATION_CONTEXT ( 'NONE', 'WORKASPACE' ) );
#4 = CARTESIAN_POINT ( 'NONE',  ( -24.99999999999999289, 0.000000000000000000, 0.000000000000000000 ) ) ;
#5 = ORIENTED_EDGE ( 'NONE', *, *, #27, .T. ) ;
#6 = MANIFOLD_SOLID_BREP ( 'Verrundung1', #207 ) ;
#7 = DIRECTION ( 'NONE',  ( 0.000000000000000000, 0.000000000000000000, 1.000000000000000000 ) ) ;
#8 = EDGE_LOOP ( 'NONE', ( #279 ) ) ;
#9 = AXIS2_PLACEMENT_3D ( 'NONE', #193, #287, #23 ) ;
#10 = FACE_OUTER_BOUND ( 'NONE', #146, .T. ) ;
#11 = CARTESIAN_POINT ( 'NONE',  ( 24.90000000000000568, 0.000000000000000000, 0.000000000000000000 ) ) ;
#12 = CARTESIAN_POINT ( 'NONE',  ( 24.90000000000000568, 0.000000000000000000, 9.199999999999999289 ) ) ;
#13 = ORIENTED_EDGE ( 'NONE', *, *, #56, .F. ) ;
#14 = PRODUCT_DEFINITION_SHAPE ( 'NONE', 'NONE',  #111 ) ;
#15 = DIRECTION ( 'NONE',  ( 1.000000000000000000, 0.000000000000000000, 0.000000000000000000 ) ) ;
#16 = EDGE_LOOP ( 'NONE', ( #131 ) ) ;
#17 = FACE_OUTER_BOUND ( 'NONE', #29, .T. ) ;
#18 = CARTESIAN_POINT ( 'NONE',  ( 25.00000000000000000, 0.000000000000000000, 8.349999999999999645 ) ) ;
#19 = AXIS2_PLACEMENT_3D ( 'NONE', #163, #15, #72 ) ;
#20 = DIRECTION ( 'NONE',  ( 1.000000000000000000, 0.000000000000000000, 0.000000000000000000 ) ) ;
#21 = DIRECTION ( 'NONE',  ( 0.000000000000000000, 0.000000000000000000, -1.000000000000000000 ) ) ;
#22 = CARTESIAN_POINT ( 'NONE',  ( 25.00000000000000000, 0.000000000000000000, 9.099999999999999645 ) ) ;
#23 = DIRECTION ( 'NONE',  ( 0.000000000000000000, 0.000000000000000000, 1.000000000000000000 ) ) ;
#24 = SURFACE_STYLE_FILL_AREA ( #226 ) ;
#25 = DIRECTION ( 'NONE',  ( 0.000000000000000000, 0.000000000000000000, 1.000000000000000000 ) ) ;
#26 = CIRCLE ( 'NONE', #100, 9.200000000000001066 ) ;
#27 = EDGE_CURVE ( 'NONE', #213, #213, #176, .T. ) ;
#28 = TOROIDAL_SURFACE ( 'NONE', #71, 9.950000000000001066, 1.500000000000000000 ) ;
#29 = EDGE_LOOP ( 'NONE', ( #182 ) ) ;
#30 = EDGE_CURVE ( 'NONE', #172, #172, #26, .T. ) ;
#31 = AXIS2_PLACEMENT_3D ( 'NONE', #114, #222, #45 ) ;
#32 = CARTESIAN_POINT ( 'NONE',  ( 25.00000000000000000, 9.199999999999995737, 0.000000000000000000 ) ) ;
#33 = MECHANICAL_DESIGN_GEOMETRIC_PRESENTATION_REPRESENTATION (  '', ( #266 ), #3 ) ;
#34 = CARTESIAN_POINT ( 'NONE',  ( 0.000000000000000000, 0.000000000000000000, 0.000000000000000000 ) ) ;
#35 = DIRECTION ( 'NONE',  ( 0.000000000000000000, 0.000000000000000000, 1.000000000000000000 ) ) ;
#36 = EDGE_LOOP ( 'NONE', ( #13 ) ) ;
#37 = TOROIDAL_SURFACE ( 'NONE', #115, 8.349999999999999645, 0.1000000000000000056 ) ;
#38 = CYLINDRICAL_SURFACE ( 'NONE', #81, 8.250000000000000000 ) ;
#39 = EDGE_LOOP ( 'NONE', ( #191 ) ) ;
#40 = DIRECTION ( 'NONE',  ( 0.000000000000000000, 0.000000000000000000, 1.000000000000000000 ) ) ;
#41 = COLOUR_RGB ( '',0.5294117647058823595, 0.5490196078431373028, 0.5490196078431373028 ) ;
#42 = DIRECTION ( 'NONE',  ( -1.000000000000000000, -0.000000000000000000, -0.000000000000000000 ) ) ;
#43 = SURFACE_SIDE_STYLE ('',( #189 ) ) ;
#44 = DIRECTION ( 'NONE',  ( 0.000000000000000000, 0.000000000000000000, -1.000000000000000000 ) ) ;
#45 = DIRECTION ( 'NONE',  ( 0.000000000000000000, 0.000000000000000000, 1.000000000000000000 ) ) ;
#46 = CARTESIAN_POINT ( 'NONE',  ( 1.299038105676657340, 0.000000000000000000, 9.200000000000001066 ) ) ;
#47 = TOROIDAL_SURFACE ( 'NONE', #274, 9.099999999999999645, 0.1000000000000000056 ) ;
#48 = DIRECTION ( 'NONE',  ( -1.000000000000000000, -0.000000000000000000, -0.000000000000000000 ) ) ;
#49 =( NAMED_UNIT ( * ) PLANE_ANGLE_UNIT ( ) SI_UNIT ( $, .RADIAN. ) );
#50 = CARTESIAN_POINT ( 'NONE',  ( 25.00000000000000000, 0.000000000000000000, 0.000000000000000000 ) ) ;
#51 = VERTEX_POINT ( 'NONE', #18 ) ;
#52 = AXIS2_PLACEMENT_3D ( 'NONE', #11, #265, #40 ) ;
#53 = ADVANCED_FACE ( 'NONE', ( #17, #291 ), #183, .T. ) ;
#54 = EDGE_CURVE ( 'NONE', #116, #116, #142, .T. ) ;
#55 = EDGE_LOOP ( 'NONE', ( #86 ) ) ;
#56 = EDGE_CURVE ( 'NONE', #288, #288, #125, .T. ) ;
#57 = ORIENTED_EDGE ( 'NONE', *, *, #138, .T. ) ;
#58 = CIRCLE ( 'NONE', #294, 8.250000000000001776 ) ;
#59 = FACE_OUTER_BOUND ( 'NONE', #259, .T. ) ;
#60 = DIRECTION ( 'NONE',  ( -1.000000000000000000, -0.000000000000000000, -0.000000000000000000 ) ) ;
#61 = ORIENTED_EDGE ( 'NONE', *, *, #27, .F. ) ;
#62 = UNCERTAINTY_MEASURE_WITH_UNIT (LENGTH_MEASURE( 1.000000000000000082E-05 ), #73, 'distance_accuracy_value', 'NONE');
#63 = ORIENTED_EDGE ( 'NONE', *, *, #77, .T. ) ;
#64 = DIRECTION ( 'NONE',  ( -1.000000000000000000, -0.000000000000000000, -0.000000000000000000 ) ) ;
#65 = CARTESIAN_POINT ( 'NONE',  ( -1.299038105676657340, 0.000000000000000000, 9.200000000000001066 ) ) ;
#66 = ORIENTED_EDGE ( 'NONE', *, *, #102, .T. ) ;
#67 = FACE_BOUND ( 'NONE', #55, .T. ) ;
#68 = AXIS2_PLACEMENT_3D ( 'NONE', #87, #239, #151 ) ;
#69 = FACE_OUTER_BOUND ( 'NONE', #39, .T. ) ;
#70 = DIRECTION ( 'NONE',  ( -1.000000000000000000, -0.000000000000000000, -0.000000000000000000 ) ) ;
#71 = AXIS2_PLACEMENT_3D ( 'NONE', #34, #185, #255 ) ;
#72 = DIRECTION ( 'NONE',  ( 0.000000000000000000, 0.000000000000000000, -1.000000000000000000 ) ) ;
#73 =( LENGTH_UNIT ( ) NAMED_UNIT ( * ) SI_UNIT ( .MILLI., .METRE. ) );
#74 = CIRCLE ( 'NONE', #144, 8.250000000000000000 ) ;
#75 = EDGE_LOOP ( 'NONE', ( #109 ) ) ;
#76 = STYLED_ITEM ( 'NONE', ( #271 ), #78 ) ;
#77 = EDGE_CURVE ( 'NONE', #221, #221, #167, .T. ) ;
#78 = ADVANCED_BREP_SHAPE_REPRESENTATION ( '2046620', ( #6, #292 ), #95 ) ;
#79 = CARTESIAN_POINT ( 'NONE',  ( 1.299038105676657340, 0.000000000000000000, 0.000000000000000000 ) ) ;
#80 = ORIENTED_EDGE ( 'NONE', *, *, #30, .F. ) ;
#81 = AXIS2_PLACEMENT_3D ( 'NONE', #280, #83, #169 ) ;
#82 = DIRECTION ( 'NONE',  ( 0.000000000000000000, 0.000000000000000000, 1.000000000000000000 ) ) ;
#83 = DIRECTION ( 'NONE',  ( -1.000000000000000000, -0.000000000000000000, -0.000000000000000000 ) ) ;
#84 = EDGE_CURVE ( 'NONE', #293, #293, #74, .T. ) ;
#85 = CARTESIAN_POINT ( 'NONE',  ( -24.90000000000000213, 0.000000000000000000, 0.000000000000000000 ) ) ;
#86 = ORIENTED_EDGE ( 'NONE', *, *, #54, .T. ) ;
#87 = CARTESIAN_POINT ( 'NONE',  ( -24.90000000000000213, 0.000000000000000000, 0.000000000000000000 ) ) ;
#88 = FACE_OUTER_BOUND ( 'NONE', #165, .T. ) ;
#89 = ORIENTED_EDGE ( 'NONE', *, *, #181, .F. ) ;
#90 = FACE_OUTER_BOUND ( 'NONE', #75, .T. ) ;
#91 = VERTEX_POINT ( 'NONE', #275 ) ;
#92 = FACE_OUTER_BOUND ( 'NONE', #202, .T. ) ;
#93 = DIRECTION ( 'NONE',  ( 0.000000000000000000, 0.000000000000000000, 1.000000000000000000 ) ) ;
#94 = CARTESIAN_POINT ( 'NONE',  ( -24.90000000000000213, 0.000000000000000000, -8.250000000000000000 ) ) ;
#95 =( GEOMETRIC_REPRESENTATION_CONTEXT ( 3 ) GLOBAL_UNCERTAINTY_ASSIGNED_CONTEXT ( ( #62 ) ) GLOBAL_UNIT_ASSIGNED_CONTEXT ( ( #73, #245, #196 ) ) REPRESENTATION_CONTEXT ( 'NONE', 'WORKASPACE' ) );
#96 =( LENGTH_UNIT ( ) NAMED_UNIT ( * ) SI_UNIT ( .MILLI., .METRE. ) );
#97 = CIRCLE ( 'NONE', #200, 9.199999999999999289 ) ;
#98 = ADVANCED_FACE ( 'NONE', ( #117, #67 ), #242, .F. ) ;
#99 = ORIENTED_EDGE ( 'NONE', *, *, #102, .F. ) ;
#100 = AXIS2_PLACEMENT_3D ( 'NONE', #284, #141, #244 ) ;
#101 = FACE_OUTER_BOUND ( 'NONE', #173, .T. ) ;
#102 = EDGE_CURVE ( 'NONE', #197, #197, #230, .T. ) ;
#103 = DIRECTION ( 'NONE',  ( 0.000000000000000000, 0.000000000000000000, 1.000000000000000000 ) ) ;
#104 = MECHANICAL_DESIGN_GEOMETRIC_PRESENTATION_REPRESENTATION (  '', ( #76 ), #164 ) ;
#105 = DIRECTION ( 'NONE',  ( 0.000000000000000000, 0.000000000000000000, 1.000000000000000000 ) ) ;
#106 = EDGE_LOOP ( 'NONE', ( #122 ) ) ;
#107 = ADVANCED_FACE ( 'NONE', ( #90, #273 ), #160, .T. ) ;
#108 = DIRECTION ( 'NONE',  ( 0.000000000000000000, 0.000000000000000000, -1.000000000000000000 ) ) ;
#109 = ORIENTED_EDGE ( 'NONE', *, *, #238, .F. ) ;
#110 = PRODUCT_DEFINITION_FORMATION_WITH_SPECIFIED_SOURCE ( 'ANY', '', #203, .NOT_KNOWN. ) ;
#111 = PRODUCT_DEFINITION ( 'UNKNOWN', '', #110, #199 ) ;
#112 = DIRECTION ( 'NONE',  ( 1.000000000000000000, 0.000000000000000000, 0.000000000000000000 ) ) ;
#113 = FILL_AREA_STYLE_COLOUR ( '', #41 ) ;
#114 = CARTESIAN_POINT ( 'NONE',  ( 24.90000000000000568, 0.000000000000000000, 0.000000000000000000 ) ) ;
#115 = AXIS2_PLACEMENT_3D ( 'NONE', #247, #48, #118 ) ;
#116 = VERTEX_POINT ( 'NONE', #140 ) ;
#117 = FACE_OUTER_BOUND ( 'NONE', #16, .T. ) ;
#118 = DIRECTION ( 'NONE',  ( 0.000000000000000000, 0.000000000000000000, 1.000000000000000000 ) ) ;
#119 = CARTESIAN_POINT ( 'NONE',  ( -25.00000000000000000, 0.000000000000000000, -9.099999999999999645 ) ) ;
#120 = AXIS2_PLACEMENT_3D ( 'NONE', #289, #70, #135 ) ;
#121 = PRESENTATION_LAYER_ASSIGNMENT (  '', '', ( #266 ) ) ;
#122 = ORIENTED_EDGE ( 'NONE', *, *, #30, .T. ) ;
#123 = AXIS2_PLACEMENT_3D ( 'NONE', #126, #60, #35 ) ;
#124 = EDGE_CURVE ( 'NONE', #178, #178, #58, .T. ) ;
#125 = CIRCLE ( 'NONE', #120, 9.099999999999999645 ) ;
#126 = CARTESIAN_POINT ( 'NONE',  ( -24.99999999999999289, 0.000000000000000000, 0.000000000000000000 ) ) ;
#127 = DIRECTION ( 'NONE',  ( 1.000000000000000000, 0.000000000000000000, 0.000000000000000000 ) ) ;
#128 = EDGE_LOOP ( 'NONE', ( #281 ) ) ;
#129 = CIRCLE ( 'NONE', #137, 8.349999999999999645 ) ;
#130 = DIRECTION ( 'NONE',  ( -1.000000000000000000, -0.000000000000000000, -0.000000000000000000 ) ) ;
#131 = ORIENTED_EDGE ( 'NONE', *, *, #56, .T. ) ;
#132 = DIRECTION ( 'NONE',  ( -1.000000000000000000, 0.000000000000000000, -0.000000000000000000 ) ) ;
#133 = SURFACE_STYLE_USAGE ( .BOTH. , #43 ) ;
#134 = APPLICATION_PROTOCOL_DEFINITION ( 'draft international standard', 'automotive_design', 1998, #270 ) ;
#135 = DIRECTION ( 'NONE',  ( 0.000000000000000000, 0.000000000000000000, -1.000000000000000000 ) ) ;
#136 = DIRECTION ( 'NONE',  ( 0.000000000000000000, 0.000000000000000000, 1.000000000000000000 ) ) ;
#137 = AXIS2_PLACEMENT_3D ( 'NONE', #50, #219, #93 ) ;
#138 = EDGE_CURVE ( 'NONE', #51, #51, #129, .T. ) ;
#139 = FACE_OUTER_BOUND ( 'NONE', #170, .T. ) ;
#140 = CARTESIAN_POINT ( 'NONE',  ( -25.00000000000000000, 0.000000000000000000, -8.349999999999999645 ) ) ;
#141 = DIRECTION ( 'NONE',  ( -1.000000000000000000, -0.000000000000000000, -0.000000000000000000 ) ) ;
#142 = CIRCLE ( 'NONE', #250, 8.349999999999999645 ) ;
#143 = UNCERTAINTY_MEASURE_WITH_UNIT (LENGTH_MEASURE( 1.000000000000000082E-05 ), #96, 'distance_accuracy_value', 'NONE');
#144 = AXIS2_PLACEMENT_3D ( 'NONE', #277, #64, #262 ) ;
#145 = ADVANCED_FACE ( 'NONE', ( #248, #92 ), #37, .T. ) ;
#146 = EDGE_LOOP ( 'NONE', ( #63 ) ) ;
#147 = CIRCLE ( 'NONE', #179, 9.200000000000001066 ) ;
#148 = DIRECTION ( 'NONE',  ( 0.000000000000000000, 0.000000000000000000, 1.000000000000000000 ) ) ;
#149 = DIRECTION ( 'NONE',  ( -1.000000000000000000, -0.000000000000000000, -0.000000000000000000 ) ) ;
#150 = ORIENTED_EDGE ( 'NONE', *, *, #238, .T. ) ;
#151 = DIRECTION ( 'NONE',  ( 0.000000000000000000, 0.000000000000000000, -1.000000000000000000 ) ) ;
#152 = CARTESIAN_POINT ( 'NONE',  ( 0.000000000000000000, 0.000000000000000000, 0.000000000000000000 ) ) ;
#153 = EDGE_LOOP ( 'NONE', ( #99 ) ) ;
#154 =( LENGTH_UNIT ( ) NAMED_UNIT ( * ) SI_UNIT ( .MILLI., .METRE. ) );
#155 = CARTESIAN_POINT ( 'NONE',  ( 1.764227876437735043, 0.000000000000000000, 8.250000000000001776 ) ) ;
#156 = DIRECTION ( 'NONE',  ( -1.000000000000000000, -0.000000000000000000, -0.000000000000000000 ) ) ;
#157 = ADVANCED_FACE ( 'NONE', ( #159, #139 ), #276, .T. ) ;
#158 = VERTEX_POINT ( 'NONE', #46 ) ;
#159 = FACE_OUTER_BOUND ( 'NONE', #153, .T. ) ;
#160 = TOROIDAL_SURFACE ( 'NONE', #19, 9.099999999999999645, 0.1000000000000000056 ) ;
#161 = CARTESIAN_POINT ( 'NONE',  ( 24.90000000000000568, 0.000000000000000000, 8.250000000000000000 ) ) ;
#162 = CARTESIAN_POINT ( 'NONE',  ( 0.000000000000000000, 0.000000000000000000, 0.000000000000000000 ) ) ;
#163 = CARTESIAN_POINT ( 'NONE',  ( -24.90000000000000213, 0.000000000000000000, 0.000000000000000000 ) ) ;
#164 =( GEOMETRIC_REPRESENTATION_CONTEXT ( 3 ) GLOBAL_UNCERTAINTY_ASSIGNED_CONTEXT ( ( #143 ) ) GLOBAL_UNIT_ASSIGNED_CONTEXT ( ( #96, #49, #224 ) ) REPRESENTATION_CONTEXT ( 'NONE', 'WORKASPACE' ) );
#165 = EDGE_LOOP ( 'NONE', ( #61 ) ) ;
#166 = DIRECTION ( 'NONE',  ( -1.000000000000000000, -0.000000000000000000, -0.000000000000000000 ) ) ;
#167 = CIRCLE ( 'NONE', #31, 8.250000000000000000 ) ;
#168 = FACE_OUTER_BOUND ( 'NONE', #106, .T. ) ;
#169 = DIRECTION ( 'NONE',  ( 0.000000000000000000, 0.000000000000000000, 1.000000000000000000 ) ) ;
#170 = EDGE_LOOP ( 'NONE', ( #283 ) ) ;
#171 = DIRECTION ( 'NONE',  ( 1.000000000000000000, 0.000000000000000000, 0.000000000000000000 ) ) ;
#172 = VERTEX_POINT ( 'NONE', #65 ) ;
#173 = EDGE_LOOP ( 'NONE', ( #80 ) ) ;
#174 = DIRECTION ( 'NONE',  ( 1.000000000000000000, 0.000000000000000000, 0.000000000000000000 ) ) ;
#175 = CYLINDRICAL_SURFACE ( 'NONE', #220, 9.199999999999999289 ) ;
#176 = CIRCLE ( 'NONE', #52, 9.199999999999999289 ) ;
#177 =( NAMED_UNIT ( * ) PLANE_ANGLE_UNIT ( ) SI_UNIT ( $, .RADIAN. ) );
#178 = VERTEX_POINT ( 'NONE', #243 ) ;
#179 = AXIS2_PLACEMENT_3D ( 'NONE', #79, #130, #105 ) ;
#180 = ADVANCED_FACE ( 'NONE', ( #282, #88 ), #47, .T. ) ;
#181 = EDGE_CURVE ( 'NONE', #158, #158, #147, .T. ) ;
#182 = ORIENTED_EDGE ( 'NONE', *, *, #54, .F. ) ;
#183 = TOROIDAL_SURFACE ( 'NONE', #68, 8.349999999999999645, 0.1000000000000000056 ) ;
#184 = ADVANCED_FACE ( 'NONE', ( #232, #278 ), #175, .T. ) ;
#185 = DIRECTION ( 'NONE',  ( -1.000000000000000000, -0.000000000000000000, -0.000000000000000000 ) ) ;
#186 = EDGE_LOOP ( 'NONE', ( #66 ) ) ;
#187 = DIRECTION ( 'NONE',  ( -0.000000000000000000, 0.000000000000000000, 1.000000000000000000 ) ) ;
#188 = FACE_OUTER_BOUND ( 'NONE', #2, .T. ) ;
#189 = SURFACE_STYLE_FILL_AREA ( #241 ) ;
#190 = FACE_OUTER_BOUND ( 'NONE', #186, .T. ) ;
#191 = ORIENTED_EDGE ( 'NONE', *, *, #204, .T. ) ;
#192 = PRESENTATION_STYLE_ASSIGNMENT (( #133 ) ) ;
#193 = CARTESIAN_POINT ( 'NONE',  ( 1.764227876437735043, 0.000000000000000000, 0.000000000000000000 ) ) ;
#194 = AXIS2_PLACEMENT_3D ( 'NONE', #269, #171, #44 ) ;
#195 = CARTESIAN_POINT ( 'NONE',  ( -1.764227876437735043, 0.000000000000000000, 0.000000000000000000 ) ) ;
#196 =( NAMED_UNIT ( * ) SI_UNIT ( $, .STERADIAN. ) SOLID_ANGLE_UNIT ( ) );
#197 = VERTEX_POINT ( 'NONE', #155 ) ;
#198 = SURFACE_STYLE_USAGE ( .BOTH. , #290 ) ;
#199 = PRODUCT_DEFINITION_CONTEXT ( 'detailed design', #270, 'design' ) ;
#200 = AXIS2_PLACEMENT_3D ( 'NONE', #85, #127, #108 ) ;
#201 = ADVANCED_FACE ( 'NONE', ( #210, #69 ), #235, .F. ) ;
#202 = EDGE_LOOP ( 'NONE', ( #218 ) ) ;
#203 = PRODUCT ( '2046620', '2046620', '', ( #268 ) ) ;
#204 = EDGE_CURVE ( 'NONE', #223, #223, #254, .T. ) ;
#205 = DIRECTION ( 'NONE',  ( -1.000000000000000000, -0.000000000000000000, -0.000000000000000000 ) ) ;
#206 = ORIENTED_EDGE ( 'NONE', *, *, #181, .T. ) ;
#207 = CLOSED_SHELL ( 'NONE', ( #227, #229, #98, #216, #157, #263, #201, #184, #145, #180, #107, #53 ) ) ;
#208 = ORIENTED_EDGE ( 'NONE', *, *, #84, .F. ) ;
#209 = UNCERTAINTY_MEASURE_WITH_UNIT (LENGTH_MEASURE( 1.000000000000000082E-05 ), #154, 'distance_accuracy_value', 'NONE');
#210 = FACE_BOUND ( 'NONE', #233, .T. ) ;
#211 = EDGE_LOOP ( 'NONE', ( #150 ) ) ;
#212 = AXIS2_PLACEMENT_3D ( 'NONE', #32, #132, #187 ) ;
#213 = VERTEX_POINT ( 'NONE', #12 ) ;
#214 = ORIENTED_EDGE ( 'NONE', *, *, #124, .F. ) ;
#215 = CARTESIAN_POINT ( 'NONE',  ( -25.00000000000000000, 0.000000000000000000, 0.000000000000000000 ) ) ;
#216 = ADVANCED_FACE ( 'NONE', ( #256, #188 ), #258, .F. ) ;
#217 = DIRECTION ( 'NONE',  ( 0.000000000000000000, 0.000000000000000000, 1.000000000000000000 ) ) ;
#218 = ORIENTED_EDGE ( 'NONE', *, *, #138, .F. ) ;
#219 = DIRECTION ( 'NONE',  ( -1.000000000000000000, -0.000000000000000000, -0.000000000000000000 ) ) ;
#220 = AXIS2_PLACEMENT_3D ( 'NONE', #4, #149, #217 ) ;
#221 = VERTEX_POINT ( 'NONE', #161 ) ;
#222 = DIRECTION ( 'NONE',  ( 1.000000000000000000, 0.000000000000000000, 0.000000000000000000 ) ) ;
#223 = VERTEX_POINT ( 'NONE', #22 ) ;
#224 =( NAMED_UNIT ( * ) SI_UNIT ( $, .STERADIAN. ) SOLID_ANGLE_UNIT ( ) );
#225 =( NAMED_UNIT ( * ) SI_UNIT ( $, .STERADIAN. ) SOLID_ANGLE_UNIT ( ) );
#226 = FILL_AREA_STYLE ('',( #267 ) ) ;
#227 = ADVANCED_FACE ( 'NONE', ( #101, #59 ), #28, .F. ) ;
#228 = EDGE_LOOP ( 'NONE', ( #252 ) ) ;
#229 = ADVANCED_FACE ( 'NONE', ( #264, #168 ), #236, .T. ) ;
#230 = CIRCLE ( 'NONE', #9, 8.250000000000001776 ) ;
#231 = CARTESIAN_POINT ( 'NONE',  ( 24.90000000000000568, 0.000000000000000000, 0.000000000000000000 ) ) ;
#232 = FACE_OUTER_BOUND ( 'NONE', #237, .T. ) ;
#233 = EDGE_LOOP ( 'NONE', ( #57 ) ) ;
#234 = APPLICATION_CONTEXT ( 'automotive_design' ) ;
#235 = PLANE ( 'NONE',  #212 ) ;
#236 = CYLINDRICAL_SURFACE ( 'NONE', #123, 9.199999999999999289 ) ;
#237 = EDGE_LOOP ( 'NONE', ( #5 ) ) ;
#238 = EDGE_CURVE ( 'NONE', #91, #91, #97, .T. ) ;
#239 = DIRECTION ( 'NONE',  ( 1.000000000000000000, 0.000000000000000000, 0.000000000000000000 ) ) ;
#240 = PRESENTATION_LAYER_ASSIGNMENT (  '', '', ( #76 ) ) ;
#241 = FILL_AREA_STYLE ('',( #113 ) ) ;
#242 = PLANE ( 'NONE',  #194 ) ;
#243 = CARTESIAN_POINT ( 'NONE',  ( -1.764227876437735043, 0.000000000000000000, 8.250000000000001776 ) ) ;
#244 = DIRECTION ( 'NONE',  ( 0.000000000000000000, 0.000000000000000000, 1.000000000000000000 ) ) ;
#245 =( NAMED_UNIT ( * ) PLANE_ANGLE_UNIT ( ) SI_UNIT ( $, .RADIAN. ) );
#246 = SHAPE_DEFINITION_REPRESENTATION ( #14, #78 ) ;
#247 = CARTESIAN_POINT ( 'NONE',  ( 24.90000000000000568, 0.000000000000000000, 0.000000000000000000 ) ) ;
#248 = FACE_OUTER_BOUND ( 'NONE', #128, .T. ) ;
#249 = AXIS2_PLACEMENT_3D ( 'NONE', #285, #166, #148 ) ;
#250 = AXIS2_PLACEMENT_3D ( 'NONE', #215, #174, #21 ) ;
#251 = COLOUR_RGB ( '',0.5294117647058823595, 0.5490196078431373028, 0.5490196078431373028 ) ;
#252 = ORIENTED_EDGE ( 'NONE', *, *, #84, .T. ) ;
#253 = PRODUCT_RELATED_PRODUCT_CATEGORY ( 'part', '', ( #203 ) ) ;
#254 = CIRCLE ( 'NONE', #1, 9.099999999999999645 ) ;
#255 = DIRECTION ( 'NONE',  ( 0.000000000000000000, 0.000000000000000000, 1.000000000000000000 ) ) ;
#256 = FACE_OUTER_BOUND ( 'NONE', #228, .T. ) ;
#257 = EDGE_LOOP ( 'NONE', ( #208 ) ) ;
#258 = CYLINDRICAL_SURFACE ( 'NONE', #249, 8.250000000000000000 ) ;
#259 = EDGE_LOOP ( 'NONE', ( #206 ) ) ;
#260 = CARTESIAN_POINT ( 'NONE',  ( 25.00000000000000000, 0.000000000000000000, 0.000000000000000000 ) ) ;
#261 = EDGE_LOOP ( 'NONE', ( #89 ) ) ;
#262 = DIRECTION ( 'NONE',  ( 0.000000000000000000, 0.000000000000000000, -1.000000000000000000 ) ) ;
#263 = ADVANCED_FACE ( 'NONE', ( #10, #190 ), #38, .F. ) ;
#264 = FACE_OUTER_BOUND ( 'NONE', #211, .T. ) ;
#265 = DIRECTION ( 'NONE',  ( -1.000000000000000000, -0.000000000000000000, -0.000000000000000000 ) ) ;
#266 = STYLED_ITEM ( 'NONE', ( #192 ), #6 ) ;
#267 = FILL_AREA_STYLE_COLOUR ( '', #251 ) ;
#268 = PRODUCT_CONTEXT ( 'NONE', #234, 'mechanical' ) ;
#269 = CARTESIAN_POINT ( 'NONE',  ( -25.00000000000000000, 9.199999999999995737, 0.000000000000000000 ) ) ;
#270 = APPLICATION_CONTEXT ( 'automotive_design' ) ;
#271 = PRESENTATION_STYLE_ASSIGNMENT (( #198 ) ) ;
#272 = APPLICATION_PROTOCOL_DEFINITION ( 'draft international standard', 'automotive_design', 1998, #234 ) ;
#273 = FACE_OUTER_BOUND ( 'NONE', #36, .T. ) ;
#274 = AXIS2_PLACEMENT_3D ( 'NONE', #231, #42, #7 ) ;
#275 = CARTESIAN_POINT ( 'NONE',  ( -24.90000000000000213, 0.000000000000000000, -9.199999999999999289 ) ) ;
#276 = TOROIDAL_SURFACE ( 'NONE', #286, 9.950000000000001066, 2.449999999999999734 ) ;
#277 = CARTESIAN_POINT ( 'NONE',  ( -24.90000000000000213, 0.000000000000000000, 0.000000000000000000 ) ) ;
#278 = FACE_OUTER_BOUND ( 'NONE', #261, .T. ) ;
#279 = ORIENTED_EDGE ( 'NONE', *, *, #204, .F. ) ;
#280 = CARTESIAN_POINT ( 'NONE',  ( -24.99999999999999289, 0.000000000000000000, 0.000000000000000000 ) ) ;
#281 = ORIENTED_EDGE ( 'NONE', *, *, #77, .F. ) ;
#282 = FACE_OUTER_BOUND ( 'NONE', #8, .T. ) ;
#283 = ORIENTED_EDGE ( 'NONE', *, *, #124, .T. ) ;
#284 = CARTESIAN_POINT ( 'NONE',  ( -1.299038105676657340, 0.000000000000000000, 0.000000000000000000 ) ) ;
#285 = CARTESIAN_POINT ( 'NONE',  ( -24.99999999999999289, 0.000000000000000000, 0.000000000000000000 ) ) ;
#286 = AXIS2_PLACEMENT_3D ( 'NONE', #152, #205, #103 ) ;
#287 = DIRECTION ( 'NONE',  ( -1.000000000000000000, -0.000000000000000000, -0.000000000000000000 ) ) ;
#288 = VERTEX_POINT ( 'NONE', #119 ) ;
#289 = CARTESIAN_POINT ( 'NONE',  ( -25.00000000000000000, 0.000000000000000000, 0.000000000000000000 ) ) ;
#290 = SURFACE_SIDE_STYLE ('',( #24 ) ) ;
#291 = FACE_OUTER_BOUND ( 'NONE', #257, .T. ) ;
#292 = AXIS2_PLACEMENT_3D ( 'NONE', #162, #25, #20 ) ;
#293 = VERTEX_POINT ( 'NONE', #94 ) ;
#294 = AXIS2_PLACEMENT_3D ( 'NONE', #195, #156, #136 ) ;
ENDSEC;
END-ISO-10303-21;
