ISO-10303-21;
HEADER;
FILE_DESCRIPTION (( 'STEP AP214' ),
    '1' );
FILE_NAME ('2046597.stp',
    '2022-02-25T07:25:59',
    ( '' ),
    ( '' ),
    'SwSTEP 2.0',
    'SolidWorks 2020',
    '' );
FILE_SCHEMA (( 'AUTOMOTIVE_DESIGN' ));
ENDSEC;

DATA;
#1 = CARTESIAN_POINT ( 'NONE',  ( 0.000000000000000000, 0.000000000000000000, -0.1500000000000945022 ) ) ;
#2 = PRODUCT_RELATED_PRODUCT_CATEGORY ( 'part', '', ( #9 ) ) ;
#3 = DIRECTION ( 'NONE',  ( 1.000000000000000000, 0.000000000000000000, 0.000000000000000000 ) ) ;
#4 = DIRECTION ( 'NONE',  ( 1.000000000000000000, 0.000000000000000000, 0.000000000000000000 ) ) ;
#5 = DIRECTION ( 'NONE',  ( 0.000000000000000000, 0.000000000000000000, 1.000000000000000000 ) ) ;
#6 = CARTESIAN_POINT ( 'NONE',  ( 0.000000000000000000, 0.000000000000000000, -2999.849999999999909 ) ) ;
#7 = EDGE_LOOP ( 'NONE', ( #25 ) ) ;
#8 = AXIS2_PLACEMENT_3D ( 'NONE', #135, #185, #170 ) ;
#9 = PRODUCT ( '2046597', '2046597', '', ( #191 ) ) ;
#10 = TOROIDAL_SURFACE ( 'NONE', #53, 19.84999999999999787, 0.1499999999999999944 ) ;
#11 = CARTESIAN_POINT ( 'NONE',  ( 18.80000000000000071, 0.000000000000000000, -0.1500000000000945022 ) ) ;
#12 = VERTEX_POINT ( 'NONE', #27 ) ;
#13 = EDGE_LOOP ( 'NONE', ( #174 ) ) ;
#14 = AXIS2_PLACEMENT_3D ( 'NONE', #1, #48, #196 ) ;
#15 = SURFACE_SIDE_STYLE ('',( #77 ) ) ;
#16 = ORIENTED_EDGE ( 'NONE', *, *, #144, .T. ) ;
#17 = STYLED_ITEM ( 'NONE', ( #29 ), #194 ) ;
#18 = DIRECTION ( 'NONE',  ( 1.000000000000000000, 0.000000000000000000, 0.000000000000000000 ) ) ;
#19 = ADVANCED_FACE ( 'NONE', ( #207, #141 ), #46, .T. ) ;
#20 = FACE_BOUND ( 'NONE', #59, .T. ) ;
#21 = DIRECTION ( 'NONE',  ( 0.000000000000000000, 0.000000000000000000, 1.000000000000000000 ) ) ;
#22 = AXIS2_PLACEMENT_3D ( 'NONE', #127, #110, #35 ) ;
#23 = DIRECTION ( 'NONE',  ( 1.000000000000000000, 0.000000000000000000, 0.000000000000000000 ) ) ;
#24 = AXIS2_PLACEMENT_3D ( 'NONE', #197, #96, #18 ) ;
#25 = ORIENTED_EDGE ( 'NONE', *, *, #56, .T. ) ;
#26 = UNCERTAINTY_MEASURE_WITH_UNIT (LENGTH_MEASURE( 1.000000000000000082E-05 ), #160, 'distance_accuracy_value', 'NONE');
#27 = CARTESIAN_POINT ( 'NONE',  ( 20.00000000000000000, 0.000000000000000000, -2999.849999999999909 ) ) ;
#28 = AXIS2_PLACEMENT_3D ( 'NONE', #49, #118, #151 ) ;
#29 = PRESENTATION_STYLE_ASSIGNMENT (( #136 ) ) ;
#30 = VERTEX_POINT ( 'NONE', #11 ) ;
#31 = ORIENTED_EDGE ( 'NONE', *, *, #142, .F. ) ;
#32 = EDGE_LOOP ( 'NONE', ( #31 ) ) ;
#33 = FACE_OUTER_BOUND ( 'NONE', #7, .T. ) ;
#34 = EDGE_CURVE ( 'NONE', #90, #90, #195, .T. ) ;
#35 = DIRECTION ( 'NONE',  ( 1.000000000000000000, 0.000000000000000000, -0.000000000000000000 ) ) ;
#36 = CYLINDRICAL_SURFACE ( 'NONE', #72, 20.00000000000000000 ) ;
#37 = DIRECTION ( 'NONE',  ( 0.000000000000000000, 0.000000000000000000, 1.000000000000000000 ) ) ;
#38 = DIRECTION ( 'NONE',  ( 0.000000000000000000, 0.000000000000000000, 1.000000000000000000 ) ) ;
#39 = CARTESIAN_POINT ( 'NONE',  ( 19.84999999999999787, 0.000000000000000000, 0.000000000000000000 ) ) ;
#40 = CARTESIAN_POINT ( 'NONE',  ( 0.000000000000000000, 0.000000000000000000, -2999.849999999999909 ) ) ;
#41 =( NAMED_UNIT ( * ) SI_UNIT ( $, .STERADIAN. ) SOLID_ANGLE_UNIT ( ) );
#42 = EDGE_LOOP ( 'NONE', ( #200 ) ) ;
#43 = PRODUCT_DEFINITION_CONTEXT ( 'detailed design', #86, 'design' ) ;
#44 = SHAPE_DEFINITION_REPRESENTATION ( #101, #194 ) ;
#45 = PRESENTATION_STYLE_ASSIGNMENT (( #125 ) ) ;
#46 = TOROIDAL_SURFACE ( 'NONE', #113, 18.95000000000000284, 0.1499999999999999944 ) ;
#47 = FACE_OUTER_BOUND ( 'NONE', #91, .T. ) ;
#48 = DIRECTION ( 'NONE',  ( 0.000000000000000000, 0.000000000000000000, 1.000000000000000000 ) ) ;
#49 = CARTESIAN_POINT ( 'NONE',  ( 0.000000000000000000, 0.000000000000000000, -0.1500000000000945022 ) ) ;
#50 =( GEOMETRIC_REPRESENTATION_CONTEXT ( 3 ) GLOBAL_UNCERTAINTY_ASSIGNED_CONTEXT ( ( #26 ) ) GLOBAL_UNIT_ASSIGNED_CONTEXT ( ( #160, #63, #193 ) ) REPRESENTATION_CONTEXT ( 'NONE', 'WORKASPACE' ) );
#51 = EDGE_LOOP ( 'NONE', ( #187 ) ) ;
#52 = DIRECTION ( 'NONE',  ( 1.000000000000000000, 0.000000000000000000, 0.000000000000000000 ) ) ;
#53 = AXIS2_PLACEMENT_3D ( 'NONE', #177, #190, #81 ) ;
#54 = VERTEX_POINT ( 'NONE', #55 ) ;
#55 = CARTESIAN_POINT ( 'NONE',  ( 18.95000000000000284, 0.000000000000000000, 0.000000000000000000 ) ) ;
#56 = EDGE_CURVE ( 'NONE', #157, #157, #167, .T. ) ;
#57 =( NAMED_UNIT ( * ) SI_UNIT ( $, .STERADIAN. ) SOLID_ANGLE_UNIT ( ) );
#58 =( LENGTH_UNIT ( ) NAMED_UNIT ( * ) SI_UNIT ( .MILLI., .METRE. ) );
#59 = EDGE_LOOP ( 'NONE', ( #103 ) ) ;
#60 = ORIENTED_EDGE ( 'NONE', *, *, #34, .F. ) ;
#61 = ADVANCED_FACE ( 'NONE', ( #65, #129 ), #74, .T. ) ;
#62 = SURFACE_SIDE_STYLE ('',( #176 ) ) ;
#63 =( NAMED_UNIT ( * ) PLANE_ANGLE_UNIT ( ) SI_UNIT ( $, .RADIAN. ) );
#64 = AXIS2_PLACEMENT_3D ( 'NONE', #131, #199, #23 ) ;
#65 = FACE_OUTER_BOUND ( 'NONE', #152, .T. ) ;
#66 = ADVANCED_FACE ( 'NONE', ( #145, #67 ), #130, .T. ) ;
#67 = FACE_BOUND ( 'NONE', #159, .T. ) ;
#68 = CARTESIAN_POINT ( 'NONE',  ( 0.000000000000000000, 0.000000000000000000, -2999.849999999999909 ) ) ;
#69 = DIRECTION ( 'NONE',  ( 1.000000000000000000, 0.000000000000000000, 0.000000000000000000 ) ) ;
#70 = EDGE_LOOP ( 'NONE', ( #76 ) ) ;
#71 = ADVANCED_FACE ( 'NONE', ( #214, #179 ), #36, .T. ) ;
#72 = AXIS2_PLACEMENT_3D ( 'NONE', #147, #21, #4 ) ;
#73 = CARTESIAN_POINT ( 'NONE',  ( 18.95000000000000284, 0.000000000000000000, -3000.000000000000000 ) ) ;
#74 = TOROIDAL_SURFACE ( 'NONE', #14, 18.95000000000000284, 0.1499999999999999944 ) ;
#75 = VERTEX_POINT ( 'NONE', #39 ) ;
#76 = ORIENTED_EDGE ( 'NONE', *, *, #143, .T. ) ;
#77 = SURFACE_STYLE_FILL_AREA ( #139 ) ;
#78 =( GEOMETRIC_REPRESENTATION_CONTEXT ( 3 ) GLOBAL_UNCERTAINTY_ASSIGNED_CONTEXT ( ( #202 ) ) GLOBAL_UNIT_ASSIGNED_CONTEXT ( ( #204, #92, #57 ) ) REPRESENTATION_CONTEXT ( 'NONE', 'WORKASPACE' ) );
#79 = CARTESIAN_POINT ( 'NONE',  ( 0.000000000000000000, 0.000000000000000000, 0.000000000000000000 ) ) ;
#80 = APPLICATION_PROTOCOL_DEFINITION ( 'draft international standard', 'automotive_design', 1998, #86 ) ;
#81 = DIRECTION ( 'NONE',  ( 1.000000000000000000, 0.000000000000000000, 0.000000000000000000 ) ) ;
#82 = DIRECTION ( 'NONE',  ( 1.000000000000000000, 0.000000000000000000, 0.000000000000000000 ) ) ;
#83 = DIRECTION ( 'NONE',  ( 1.000000000000000000, 0.000000000000000000, 0.000000000000000000 ) ) ;
#84 = CARTESIAN_POINT ( 'NONE',  ( 0.000000000000000000, 0.000000000000000000, -3000.000000000000000 ) ) ;
#85 = AXIS2_PLACEMENT_3D ( 'NONE', #68, #149, #52 ) ;
#86 = APPLICATION_CONTEXT ( 'automotive_design' ) ;
#87 = DIRECTION ( 'NONE',  ( 1.000000000000000000, 0.000000000000000000, 0.000000000000000000 ) ) ;
#88 = ORIENTED_EDGE ( 'NONE', *, *, #208, .F. ) ;
#89 = CIRCLE ( 'NONE', #85, 20.00000000000000000 ) ;
#90 = VERTEX_POINT ( 'NONE', #106 ) ;
#91 = EDGE_LOOP ( 'NONE', ( #88 ) ) ;
#92 =( NAMED_UNIT ( * ) PLANE_ANGLE_UNIT ( ) SI_UNIT ( $, .RADIAN. ) );
#93 = EDGE_LOOP ( 'NONE', ( #210 ) ) ;
#94 = COLOUR_RGB ( '',0.7529411764705882248, 0.7529411764705882248, 0.7529411764705882248 ) ;
#95 = ADVANCED_FACE ( 'NONE', ( #47, #114 ), #10, .T. ) ;
#96 = DIRECTION ( 'NONE',  ( -0.000000000000000000, -0.000000000000000000, -1.000000000000000000 ) ) ;
#97 = DIRECTION ( 'NONE',  ( 0.000000000000000000, 0.000000000000000000, 1.000000000000000000 ) ) ;
#98 = ADVANCED_FACE ( 'NONE', ( #33, #20 ), #146, .F. ) ;
#99 = DIRECTION ( 'NONE',  ( 1.000000000000000000, 0.000000000000000000, 0.000000000000000000 ) ) ;
#100 = STYLED_ITEM ( 'NONE', ( #45 ), #116 ) ;
#101 = PRODUCT_DEFINITION_SHAPE ( 'NONE', 'NONE',  #154 ) ;
#102 = DIRECTION ( 'NONE',  ( -0.000000000000000000, -0.000000000000000000, -1.000000000000000000 ) ) ;
#103 = ORIENTED_EDGE ( 'NONE', *, *, #150, .T. ) ;
#104 = AXIS2_PLACEMENT_3D ( 'NONE', #84, #162, #83 ) ;
#105 = PRODUCT_DEFINITION_FORMATION_WITH_SPECIFIED_SOURCE ( 'ANY', '', #9, .NOT_KNOWN. ) ;
#106 = CARTESIAN_POINT ( 'NONE',  ( 18.80000000000000071, 0.000000000000000000, -2999.849999999999909 ) ) ;
#107 = VERTEX_POINT ( 'NONE', #121 ) ;
#108 = DIRECTION ( 'NONE',  ( 0.000000000000000000, 0.000000000000000000, 1.000000000000000000 ) ) ;
#109 = ORIENTED_EDGE ( 'NONE', *, *, #208, .T. ) ;
#110 = DIRECTION ( 'NONE',  ( 0.000000000000000000, 0.000000000000000000, 1.000000000000000000 ) ) ;
#111 = AXIS2_PLACEMENT_3D ( 'NONE', #6, #38, #87 ) ;
#112 = FILL_AREA_STYLE ('',( #211 ) ) ;
#113 = AXIS2_PLACEMENT_3D ( 'NONE', #40, #108, #171 ) ;
#114 = FACE_OUTER_BOUND ( 'NONE', #51, .T. ) ;
#115 = CARTESIAN_POINT ( 'NONE',  ( 0.000000000000000000, 0.000000000000000000, 0.000000000000000000 ) ) ;
#116 = MANIFOLD_SOLID_BREP ( 'Verrundung1', #206 ) ;
#117 = FACE_OUTER_BOUND ( 'NONE', #13, .T. ) ;
#118 = DIRECTION ( 'NONE',  ( 0.000000000000000000, 0.000000000000000000, 1.000000000000000000 ) ) ;
#119 = CIRCLE ( 'NONE', #28, 18.80000000000000071 ) ;
#120 = FACE_OUTER_BOUND ( 'NONE', #32, .T. ) ;
#121 = CARTESIAN_POINT ( 'NONE',  ( 20.00000000000000000, 0.000000000000000000, -0.1500000000000945022 ) ) ;
#122 = MECHANICAL_DESIGN_GEOMETRIC_PRESENTATION_REPRESENTATION (  '', ( #17 ), #78 ) ;
#123 = UNCERTAINTY_MEASURE_WITH_UNIT (LENGTH_MEASURE( 1.000000000000000082E-05 ), #58, 'distance_accuracy_value', 'NONE');
#124 = ORIENTED_EDGE ( 'NONE', *, *, #150, .F. ) ;
#125 = SURFACE_STYLE_USAGE ( .BOTH. , #62 ) ;
#126 = DIRECTION ( 'NONE',  ( 0.000000000000000000, 0.000000000000000000, 1.000000000000000000 ) ) ;
#127 = CARTESIAN_POINT ( 'NONE',  ( 0.000000000000000000, 0.000000000000000000, -3000.000000000000000 ) ) ;
#128 = AXIS2_PLACEMENT_3D ( 'NONE', #115, #97, #163 ) ;
#129 = FACE_OUTER_BOUND ( 'NONE', #184, .T. ) ;
#130 = PLANE ( 'NONE',  #128 ) ;
#131 = CARTESIAN_POINT ( 'NONE',  ( 0.000000000000000000, 0.000000000000000000, -3000.000000000000000 ) ) ;
#132 = ORIENTED_EDGE ( 'NONE', *, *, #169, .F. ) ;
#133 = CYLINDRICAL_SURFACE ( 'NONE', #198, 18.80000000000000071 ) ;
#134 = PRESENTATION_LAYER_ASSIGNMENT (  '', '', ( #100 ) ) ;
#135 = CARTESIAN_POINT ( 'NONE',  ( 0.000000000000000000, 0.000000000000000000, -0.1500000000000945022 ) ) ;
#136 = SURFACE_STYLE_USAGE ( .BOTH. , #15 ) ;
#137 = CARTESIAN_POINT ( 'NONE',  ( 19.84999999999999787, 0.000000000000000000, -3000.000000000000000 ) ) ;
#138 = EDGE_LOOP ( 'NONE', ( #109 ) ) ;
#139 = FILL_AREA_STYLE ('',( #172 ) ) ;
#140 =( GEOMETRIC_REPRESENTATION_CONTEXT ( 3 ) GLOBAL_UNCERTAINTY_ASSIGNED_CONTEXT ( ( #123 ) ) GLOBAL_UNIT_ASSIGNED_CONTEXT ( ( #58, #205, #41 ) ) REPRESENTATION_CONTEXT ( 'NONE', 'WORKASPACE' ) );
#141 = FACE_OUTER_BOUND ( 'NONE', #158, .T. ) ;
#142 = EDGE_CURVE ( 'NONE', #12, #12, #89, .T. ) ;
#143 = EDGE_CURVE ( 'NONE', #75, #75, #148, .T. ) ;
#144 = EDGE_CURVE ( 'NONE', #54, #54, #203, .T. ) ;
#145 = FACE_OUTER_BOUND ( 'NONE', #70, .T. ) ;
#146 = PLANE ( 'NONE',  #22 ) ;
#147 = CARTESIAN_POINT ( 'NONE',  ( 0.000000000000000000, 0.000000000000000000, -3000.000000000000000 ) ) ;
#148 = CIRCLE ( 'NONE', #155, 19.84999999999999787 ) ;
#149 = DIRECTION ( 'NONE',  ( 0.000000000000000000, 0.000000000000000000, 1.000000000000000000 ) ) ;
#150 = EDGE_CURVE ( 'NONE', #156, #156, #164, .T. ) ;
#151 = DIRECTION ( 'NONE',  ( 1.000000000000000000, 0.000000000000000000, 0.000000000000000000 ) ) ;
#152 = EDGE_LOOP ( 'NONE', ( #186 ) ) ;
#153 = PRESENTATION_LAYER_ASSIGNMENT (  '', '', ( #17 ) ) ;
#154 = PRODUCT_DEFINITION ( 'UNKNOWN', '', #105, #43 ) ;
#155 = AXIS2_PLACEMENT_3D ( 'NONE', #165, #5, #99 ) ;
#156 = VERTEX_POINT ( 'NONE', #73 ) ;
#157 = VERTEX_POINT ( 'NONE', #137 ) ;
#158 = EDGE_LOOP ( 'NONE', ( #124 ) ) ;
#159 = EDGE_LOOP ( 'NONE', ( #16 ) ) ;
#160 =( LENGTH_UNIT ( ) NAMED_UNIT ( * ) SI_UNIT ( .MILLI., .METRE. ) );
#161 = ADVANCED_FACE ( 'NONE', ( #117, #120 ), #181, .T. ) ;
#162 = DIRECTION ( 'NONE',  ( -0.000000000000000000, -0.000000000000000000, -1.000000000000000000 ) ) ;
#163 = DIRECTION ( 'NONE',  ( 1.000000000000000000, 0.000000000000000000, -0.000000000000000000 ) ) ;
#164 = CIRCLE ( 'NONE', #64, 18.95000000000000284 ) ;
#165 = CARTESIAN_POINT ( 'NONE',  ( 0.000000000000000000, 0.000000000000000000, 0.000000000000000000 ) ) ;
#166 = FACE_OUTER_BOUND ( 'NONE', #93, .T. ) ;
#167 = CIRCLE ( 'NONE', #104, 19.84999999999999787 ) ;
#168 = EDGE_LOOP ( 'NONE', ( #173 ) ) ;
#169 = EDGE_CURVE ( 'NONE', #30, #30, #119, .T. ) ;
#170 = DIRECTION ( 'NONE',  ( 1.000000000000000000, 0.000000000000000000, 0.000000000000000000 ) ) ;
#171 = DIRECTION ( 'NONE',  ( 1.000000000000000000, 0.000000000000000000, 0.000000000000000000 ) ) ;
#172 = FILL_AREA_STYLE_COLOUR ( '', #94 ) ;
#173 = ORIENTED_EDGE ( 'NONE', *, *, #169, .T. ) ;
#174 = ORIENTED_EDGE ( 'NONE', *, *, #56, .F. ) ;
#175 = MECHANICAL_DESIGN_GEOMETRIC_PRESENTATION_REPRESENTATION (  '', ( #100 ), #50 ) ;
#176 = SURFACE_STYLE_FILL_AREA ( #112 ) ;
#177 = CARTESIAN_POINT ( 'NONE',  ( 0.000000000000000000, 0.000000000000000000, -0.1500000000000945022 ) ) ;
#178 = AXIS2_PLACEMENT_3D ( 'NONE', #79, #126, #82 ) ;
#179 = FACE_OUTER_BOUND ( 'NONE', #138, .T. ) ;
#180 = CARTESIAN_POINT ( 'NONE',  ( 0.000000000000000000, 0.000000000000000000, 0.000000000000000000 ) ) ;
#181 = TOROIDAL_SURFACE ( 'NONE', #111, 19.84999999999999787, 0.1499999999999999944 ) ;
#182 = FACE_OUTER_BOUND ( 'NONE', #168, .T. ) ;
#183 = APPLICATION_CONTEXT ( 'automotive_design' ) ;
#184 = EDGE_LOOP ( 'NONE', ( #132 ) ) ;
#185 = DIRECTION ( 'NONE',  ( -0.000000000000000000, -0.000000000000000000, -1.000000000000000000 ) ) ;
#186 = ORIENTED_EDGE ( 'NONE', *, *, #144, .F. ) ;
#187 = ORIENTED_EDGE ( 'NONE', *, *, #143, .F. ) ;
#188 = ADVANCED_FACE ( 'NONE', ( #166, #182 ), #133, .F. ) ;
#189 = EDGE_LOOP ( 'NONE', ( #60 ) ) ;
#190 = DIRECTION ( 'NONE',  ( 0.000000000000000000, 0.000000000000000000, 1.000000000000000000 ) ) ;
#191 = PRODUCT_CONTEXT ( 'NONE', #183, 'mechanical' ) ;
#192 = COLOUR_RGB ( '',0.7529411764705882248, 0.7529411764705882248, 0.7529411764705882248 ) ;
#193 =( NAMED_UNIT ( * ) SI_UNIT ( $, .STERADIAN. ) SOLID_ANGLE_UNIT ( ) );
#194 = ADVANCED_BREP_SHAPE_REPRESENTATION ( '2046597', ( #116, #178 ), #140 ) ;
#195 = CIRCLE ( 'NONE', #24, 18.80000000000000071 ) ;
#196 = DIRECTION ( 'NONE',  ( 1.000000000000000000, 0.000000000000000000, 0.000000000000000000 ) ) ;
#197 = CARTESIAN_POINT ( 'NONE',  ( 0.000000000000000000, 0.000000000000000000, -2999.849999999999909 ) ) ;
#198 = AXIS2_PLACEMENT_3D ( 'NONE', #201, #37, #3 ) ;
#199 = DIRECTION ( 'NONE',  ( 0.000000000000000000, 0.000000000000000000, 1.000000000000000000 ) ) ;
#200 = ORIENTED_EDGE ( 'NONE', *, *, #142, .T. ) ;
#201 = CARTESIAN_POINT ( 'NONE',  ( 0.000000000000000000, 0.000000000000000000, -3000.000000000000000 ) ) ;
#202 = UNCERTAINTY_MEASURE_WITH_UNIT (LENGTH_MEASURE( 1.000000000000000082E-05 ), #204, 'distance_accuracy_value', 'NONE');
#203 = CIRCLE ( 'NONE', #213, 18.95000000000000284 ) ;
#204 =( LENGTH_UNIT ( ) NAMED_UNIT ( * ) SI_UNIT ( .MILLI., .METRE. ) );
#205 =( NAMED_UNIT ( * ) PLANE_ANGLE_UNIT ( ) SI_UNIT ( $, .RADIAN. ) );
#206 = CLOSED_SHELL ( 'NONE', ( #71, #98, #66, #188, #161, #19, #95, #61 ) ) ;
#207 = FACE_OUTER_BOUND ( 'NONE', #189, .T. ) ;
#208 = EDGE_CURVE ( 'NONE', #107, #107, #209, .T. ) ;
#209 = CIRCLE ( 'NONE', #8, 20.00000000000000000 ) ;
#210 = ORIENTED_EDGE ( 'NONE', *, *, #34, .T. ) ;
#211 = FILL_AREA_STYLE_COLOUR ( '', #192 ) ;
#212 = APPLICATION_PROTOCOL_DEFINITION ( 'draft international standard', 'automotive_design', 1998, #183 ) ;
#213 = AXIS2_PLACEMENT_3D ( 'NONE', #180, #102, #69 ) ;
#214 = FACE_OUTER_BOUND ( 'NONE', #42, .T. ) ;
ENDSEC;
END-ISO-10303-21;
