ISO-10303-21;
HEADER;
FILE_DESCRIPTION (( 'STEP AP214' ),
    '1' );
FILE_NAME ('2046571.stp',
    '2017-05-23T12:32:31',
    ( '' ),
    ( '' ),
    'SwSTEP 2.0',
    'SolidWorks 2016',
    '' );
FILE_SCHEMA (( 'AUTOMOTIVE_DESIGN' ));
ENDSEC;

DATA;
#1 = CARTESIAN_POINT ( 'NONE',  ( 0.0000000000000000000, 0.0000000000000000000, -3000.000000000000000 ) ) ;
#2 = DIRECTION ( 'NONE',  ( 1.000000000000000000, 0.0000000000000000000, 0.0000000000000000000 ) ) ;
#3 = DIRECTION ( 'NONE',  ( 1.000000000000000000, 0.0000000000000000000, 0.0000000000000000000 ) ) ;
#4 = CIRCLE ( 'NONE', #163, 30.00000000000000000 ) ;
#5 = DIRECTION ( 'NONE',  ( 1.000000000000000000, 0.0000000000000000000, 0.0000000000000000000 ) ) ;
#6 = LINE ( 'NONE', #65, #79 ) ;
#7 = SURFACE_STYLE_FILL_AREA ( #81 ) ;
#8 = CIRCLE ( 'NONE', #187, 31.50000000000000000 ) ;
#9 = EDGE_CURVE ( 'NONE', #192, #166, #152, .T. ) ;
#10 = ORIENTED_EDGE ( 'NONE', *, *, #39, .T. ) ;
#11 = CIRCLE ( 'NONE', #102, 30.00000000000000000 ) ;
#12 = PRESENTATION_STYLE_ASSIGNMENT (( #16 ) ) ;
#13 = FILL_AREA_STYLE_COLOUR ( '', #174 ) ;
#14 = DIRECTION ( 'NONE',  ( 0.0000000000000000000, 0.0000000000000000000, 1.000000000000000000 ) ) ;
#15 = EDGE_CURVE ( 'NONE', #55, #128, #203, .T. ) ;
#16 = SURFACE_STYLE_USAGE ( .BOTH. , #186 ) ;
#17 = FACE_OUTER_BOUND ( 'NONE', #63, .T. ) ;
#18 = APPLICATION_CONTEXT ( 'automotive_design' ) ;
#19 = FILL_AREA_STYLE ('',( #13 ) ) ;
#20 = ORIENTED_EDGE ( 'NONE', *, *, #119, .F. ) ;
#21 = SURFACE_STYLE_USAGE ( .BOTH. , #188 ) ;
#22 = PRODUCT_DEFINITION_SHAPE ( 'NONE', 'NONE',  #66 ) ;
#23 = ORIENTED_EDGE ( 'NONE', *, *, #28, .T. ) ;
#24 = CIRCLE ( 'NONE', #115, 31.50000000000000000 ) ;
#25 = AXIS2_PLACEMENT_3D ( 'NONE', #145, #52, #171 ) ;
#26 = AXIS2_PLACEMENT_3D ( 'NONE', #108, #124, #40 ) ;
#27 = FACE_BOUND ( 'NONE', #82, .T. ) ;
#28 = EDGE_CURVE ( 'NONE', #128, #117, #178, .T. ) ;
#29 = PRESENTATION_LAYER_ASSIGNMENT (  '', '', ( #170 ) ) ;
#30 = UNCERTAINTY_MEASURE_WITH_UNIT (LENGTH_MEASURE( 1.000000000000000100E-005 ), #104, 'distance_accuracy_value', 'NONE');
#31 =( NAMED_UNIT ( * ) PLANE_ANGLE_UNIT ( ) SI_UNIT ( $, .RADIAN. ) );
#32 = ORIENTED_EDGE ( 'NONE', *, *, #209, .T. ) ;
#33 = UNCERTAINTY_MEASURE_WITH_UNIT (LENGTH_MEASURE( 1.000000000000000100E-005 ), #214, 'distance_accuracy_value', 'NONE');
#34 = VECTOR ( 'NONE', #172, 1000.000000000000000 ) ;
#35 = ORIENTED_EDGE ( 'NONE', *, *, #90, .T. ) ;
#36 = ORIENTED_EDGE ( 'NONE', *, *, #15, .T. ) ;
#37 = PRESENTATION_STYLE_ASSIGNMENT (( #21 ) ) ;
#38 = ADVANCED_FACE ( 'NONE', ( #78 ), #121, .F. ) ;
#39 = EDGE_CURVE ( 'NONE', #166, #87, #160, .T. ) ;
#40 = DIRECTION ( 'NONE',  ( 1.000000000000000000, 0.0000000000000000000, 0.0000000000000000000 ) ) ;
#41 = CYLINDRICAL_SURFACE ( 'NONE', #202, 30.00000000000000000 ) ;
#42 = EDGE_LOOP ( 'NONE', ( #164, #204, #36, #20 ) ) ;
#43 = CARTESIAN_POINT ( 'NONE',  ( 0.0000000000000000000, 0.0000000000000000000, -3000.000000000000000 ) ) ;
#44 = LINE ( 'NONE', #189, #34 ) ;
#45 =( GEOMETRIC_REPRESENTATION_CONTEXT ( 3 ) GLOBAL_UNCERTAINTY_ASSIGNED_CONTEXT ( ( #60 ) ) GLOBAL_UNIT_ASSIGNED_CONTEXT ( ( #101, #31, #83 ) ) REPRESENTATION_CONTEXT ( 'NONE', 'WORKASPACE' ) );
#46 = CLOSED_SHELL ( 'NONE', ( #75, #54, #53, #96, #92, #38 ) ) ;
#47 = DIRECTION ( 'NONE',  ( 0.0000000000000000000, 0.0000000000000000000, 1.000000000000000000 ) ) ;
#48 = EDGE_LOOP ( 'NONE', ( #200, #197 ) ) ;
#49 = DIRECTION ( 'NONE',  ( 1.000000000000000000, 0.0000000000000000000, 0.0000000000000000000 ) ) ;
#50 =( NAMED_UNIT ( * ) PLANE_ANGLE_UNIT ( ) SI_UNIT ( $, .RADIAN. ) );
#51 = DIRECTION ( 'NONE',  ( 0.0000000000000000000, 0.0000000000000000000, 1.000000000000000000 ) ) ;
#52 = DIRECTION ( 'NONE',  ( 0.0000000000000000000, 0.0000000000000000000, 1.000000000000000000 ) ) ;
#53 = ADVANCED_FACE ( 'NONE', ( #112 ), #62, .T. ) ;
#54 = ADVANCED_FACE ( 'NONE', ( #72 ), #57, .T. ) ;
#55 = VERTEX_POINT ( 'NONE', #142 ) ;
#56 = FACE_BOUND ( 'NONE', #48, .T. ) ;
#57 = CYLINDRICAL_SURFACE ( 'NONE', #26, 31.50000000000000000 ) ;
#58 = ORIENTED_EDGE ( 'NONE', *, *, #119, .T. ) ;
#59 = FACE_OUTER_BOUND ( 'NONE', #140, .T. ) ;
#60 = UNCERTAINTY_MEASURE_WITH_UNIT (LENGTH_MEASURE( 1.000000000000000100E-005 ), #101, 'distance_accuracy_value', 'NONE');
#61 = CARTESIAN_POINT ( 'NONE',  ( 0.0000000000000000000, 0.0000000000000000000, -3000.000000000000000 ) ) ;
#62 = CYLINDRICAL_SURFACE ( 'NONE', #147, 31.50000000000000000 ) ;
#63 = EDGE_LOOP ( 'NONE', ( #157, #133 ) ) ;
#64 =( NAMED_UNIT ( * ) PLANE_ANGLE_UNIT ( ) SI_UNIT ( $, .RADIAN. ) );
#65 = CARTESIAN_POINT ( 'NONE',  ( 30.00000000000000000, 0.0000000000000000000, -3000.000000000000000 ) ) ;
#66 = PRODUCT_DEFINITION ( 'UNKNOWN', '', #111, #175 ) ;
#67 = DIRECTION ( 'NONE',  ( 1.000000000000000000, 0.0000000000000000000, 0.0000000000000000000 ) ) ;
#68 = CIRCLE ( 'NONE', #162, 30.00000000000000000 ) ;
#69 = CARTESIAN_POINT ( 'NONE',  ( 0.0000000000000000000, 0.0000000000000000000, -3000.000000000000000 ) ) ;
#70 = ADVANCED_BREP_SHAPE_REPRESENTATION ( '2046571', ( #193, #176 ), #210 ) ;
#71 = AXIS2_PLACEMENT_3D ( 'NONE', #138, #198, #143 ) ;
#72 = FACE_OUTER_BOUND ( 'NONE', #146, .T. ) ;
#73 = EDGE_CURVE ( 'NONE', #87, #106, #68, .T. ) ;
#74 = CARTESIAN_POINT ( 'NONE',  ( 0.0000000000000000000, 0.0000000000000000000, -3000.000000000000000 ) ) ;
#75 = ADVANCED_FACE ( 'NONE', ( #59 ), #41, .F. ) ;
#76 = DIRECTION ( 'NONE',  ( 1.000000000000000000, 0.0000000000000000000, 0.0000000000000000000 ) ) ;
#77 =( GEOMETRIC_REPRESENTATION_CONTEXT ( 3 ) GLOBAL_UNCERTAINTY_ASSIGNED_CONTEXT ( ( #33 ) ) GLOBAL_UNIT_ASSIGNED_CONTEXT ( ( #214, #50, #84 ) ) REPRESENTATION_CONTEXT ( 'NONE', 'WORKASPACE' ) );
#78 = FACE_OUTER_BOUND ( 'NONE', #169, .T. ) ;
#79 = VECTOR ( 'NONE', #51, 1000.000000000000000 ) ;
#80 = DIRECTION ( 'NONE',  ( 1.000000000000000000, 0.0000000000000000000, 0.0000000000000000000 ) ) ;
#81 = FILL_AREA_STYLE ('',( #118 ) ) ;
#82 = EDGE_LOOP ( 'NONE', ( #135, #116 ) ) ;
#83 =( NAMED_UNIT ( * ) SI_UNIT ( $, .STERADIAN. ) SOLID_ANGLE_UNIT ( ) );
#84 =( NAMED_UNIT ( * ) SI_UNIT ( $, .STERADIAN. ) SOLID_ANGLE_UNIT ( ) );
#85 = AXIS2_PLACEMENT_3D ( 'NONE', #43, #131, #76 ) ;
#86 = CARTESIAN_POINT ( 'NONE',  ( 0.0000000000000000000, 0.0000000000000000000, 0.0000000000000000000 ) ) ;
#87 = VERTEX_POINT ( 'NONE', #88 ) ;
#88 = CARTESIAN_POINT ( 'NONE',  ( -30.00000000000000000, 3.673940397442059200E-015, 0.0000000000000000000 ) ) ;
#89 = FACE_OUTER_BOUND ( 'NONE', #201, .T. ) ;
#90 = EDGE_CURVE ( 'NONE', #182, #117, #44, .T. ) ;
#91 = MECHANICAL_DESIGN_GEOMETRIC_PRESENTATION_REPRESENTATION (  '', ( #170 ), #77 ) ;
#92 = ADVANCED_FACE ( 'NONE', ( #56, #89 ), #191, .T. ) ;
#93 = CARTESIAN_POINT ( 'NONE',  ( 0.0000000000000000000, 0.0000000000000000000, 0.0000000000000000000 ) ) ;
#94 = AXIS2_PLACEMENT_3D ( 'NONE', #93, #125, #141 ) ;
#95 = VECTOR ( 'NONE', #113, 1000.000000000000000 ) ;
#96 = ADVANCED_FACE ( 'NONE', ( #27, #17 ), #156, .F. ) ;
#97 = PRODUCT ( '2046571', '2046571', '', ( #151 ) ) ;
#98 = CARTESIAN_POINT ( 'NONE',  ( -30.00000000000000000, 3.673940397442059200E-015, -3000.000000000000000 ) ) ;
#99 =( NAMED_UNIT ( * ) SI_UNIT ( $, .STERADIAN. ) SOLID_ANGLE_UNIT ( ) );
#100 = ORIENTED_EDGE ( 'NONE', *, *, #28, .F. ) ;
#101 =( LENGTH_UNIT ( ) NAMED_UNIT ( * ) SI_UNIT ( .MILLI., .METRE. ) );
#102 = AXIS2_PLACEMENT_3D ( 'NONE', #1, #14, #2 ) ;
#103 = APPLICATION_PROTOCOL_DEFINITION ( 'draft international standard', 'automotive_design', 1998, #18 ) ;
#104 =( LENGTH_UNIT ( ) NAMED_UNIT ( * ) SI_UNIT ( .MILLI., .METRE. ) );
#105 = DIRECTION ( 'NONE',  ( 0.0000000000000000000, 0.0000000000000000000, 1.000000000000000000 ) ) ;
#106 = VERTEX_POINT ( 'NONE', #155 ) ;
#107 = SHAPE_DEFINITION_REPRESENTATION ( #22, #70 ) ;
#108 = CARTESIAN_POINT ( 'NONE',  ( 0.0000000000000000000, 0.0000000000000000000, -3000.000000000000000 ) ) ;
#109 = CIRCLE ( 'NONE', #136, 31.50000000000000000 ) ;
#110 = DIRECTION ( 'NONE',  ( 0.0000000000000000000, 0.0000000000000000000, 1.000000000000000000 ) ) ;
#111 = PRODUCT_DEFINITION_FORMATION_WITH_SPECIFIED_SOURCE ( 'ANY', '', #97, .NOT_KNOWN. ) ;
#112 = FACE_OUTER_BOUND ( 'NONE', #42, .T. ) ;
#113 = DIRECTION ( 'NONE',  ( 0.0000000000000000000, 0.0000000000000000000, 1.000000000000000000 ) ) ;
#114 = EDGE_CURVE ( 'NONE', #55, #182, #24, .T. ) ;
#115 = AXIS2_PLACEMENT_3D ( 'NONE', #69, #205, #3 ) ;
#116 = ORIENTED_EDGE ( 'NONE', *, *, #132, .T. ) ;
#117 = VERTEX_POINT ( 'NONE', #179 ) ;
#118 = FILL_AREA_STYLE_COLOUR ( '', #161 ) ;
#119 = EDGE_CURVE ( 'NONE', #117, #128, #109, .T. ) ;
#120 = CARTESIAN_POINT ( 'NONE',  ( 0.0000000000000000000, 0.0000000000000000000, 0.0000000000000000000 ) ) ;
#121 = CYLINDRICAL_SURFACE ( 'NONE', #71, 30.00000000000000000 ) ;
#122 = ORIENTED_EDGE ( 'NONE', *, *, #132, .F. ) ;
#123 = CARTESIAN_POINT ( 'NONE',  ( 30.00000000000000000, 0.0000000000000000000, -3000.000000000000000 ) ) ;
#124 = DIRECTION ( 'NONE',  ( 0.0000000000000000000, 0.0000000000000000000, 1.000000000000000000 ) ) ;
#125 = DIRECTION ( 'NONE',  ( 0.0000000000000000000, 0.0000000000000000000, 1.000000000000000000 ) ) ;
#126 = CARTESIAN_POINT ( 'NONE',  ( -30.00000000000000000, 3.673940397442059200E-015, -3000.000000000000000 ) ) ;
#127 = ORIENTED_EDGE ( 'NONE', *, *, #9, .F. ) ;
#128 = VERTEX_POINT ( 'NONE', #134 ) ;
#129 = MECHANICAL_DESIGN_GEOMETRIC_PRESENTATION_REPRESENTATION (  '', ( #213 ), #45 ) ;
#130 = DIRECTION ( 'NONE',  ( 0.0000000000000000000, 0.0000000000000000000, 1.000000000000000000 ) ) ;
#131 = DIRECTION ( 'NONE',  ( 0.0000000000000000000, 0.0000000000000000000, 1.000000000000000000 ) ) ;
#132 = EDGE_CURVE ( 'NONE', #166, #192, #11, .T. ) ;
#133 = ORIENTED_EDGE ( 'NONE', *, *, #159, .F. ) ;
#134 = CARTESIAN_POINT ( 'NONE',  ( 31.50000000000000000, 0.0000000000000000000, 0.0000000000000000000 ) ) ;
#135 = ORIENTED_EDGE ( 'NONE', *, *, #9, .T. ) ;
#136 = AXIS2_PLACEMENT_3D ( 'NONE', #120, #208, #49 ) ;
#137 = DIRECTION ( 'NONE',  ( 1.000000000000000000, 0.0000000000000000000, 0.0000000000000000000 ) ) ;
#138 = CARTESIAN_POINT ( 'NONE',  ( 0.0000000000000000000, 0.0000000000000000000, -3000.000000000000000 ) ) ;
#139 = AXIS2_PLACEMENT_3D ( 'NONE', #86, #105, #67 ) ;
#140 = EDGE_LOOP ( 'NONE', ( #122, #10, #144, #190 ) ) ;
#141 = DIRECTION ( 'NONE',  ( 1.000000000000000000, 0.0000000000000000000, -0.0000000000000000000 ) ) ;
#142 = CARTESIAN_POINT ( 'NONE',  ( 31.50000000000000000, 0.0000000000000000000, -3000.000000000000000 ) ) ;
#143 = DIRECTION ( 'NONE',  ( 1.000000000000000000, 0.0000000000000000000, 0.0000000000000000000 ) ) ;
#144 = ORIENTED_EDGE ( 'NONE', *, *, #73, .T. ) ;
#145 = CARTESIAN_POINT ( 'NONE',  ( 0.0000000000000000000, 0.0000000000000000000, -3000.000000000000000 ) ) ;
#146 = EDGE_LOOP ( 'NONE', ( #212, #35, #100, #148 ) ) ;
#147 = AXIS2_PLACEMENT_3D ( 'NONE', #74, #154, #177 ) ;
#148 = ORIENTED_EDGE ( 'NONE', *, *, #15, .F. ) ;
#149 = CARTESIAN_POINT ( 'NONE',  ( 0.0000000000000000000, 0.0000000000000000000, 0.0000000000000000000 ) ) ;
#150 = DIRECTION ( 'NONE',  ( 0.0000000000000000000, 0.0000000000000000000, 1.000000000000000000 ) ) ;
#151 = PRODUCT_CONTEXT ( 'NONE', #185, 'mechanical' ) ;
#152 = CIRCLE ( 'NONE', #85, 30.00000000000000000 ) ;
#153 = ORIENTED_EDGE ( 'NONE', *, *, #39, .F. ) ;
#154 = DIRECTION ( 'NONE',  ( 0.0000000000000000000, 0.0000000000000000000, 1.000000000000000000 ) ) ;
#155 = CARTESIAN_POINT ( 'NONE',  ( 30.00000000000000000, 0.0000000000000000000, 0.0000000000000000000 ) ) ;
#156 = PLANE ( 'NONE',  #25 ) ;
#157 = ORIENTED_EDGE ( 'NONE', *, *, #114, .F. ) ;
#158 = DIRECTION ( 'NONE',  ( 1.000000000000000000, 0.0000000000000000000, 0.0000000000000000000 ) ) ;
#159 = EDGE_CURVE ( 'NONE', #182, #55, #8, .T. ) ;
#160 = LINE ( 'NONE', #126, #95 ) ;
#161 = COLOUR_RGB ( '',0.7529411764705882200, 0.7529411764705882200, 0.7529411764705882200 ) ;
#162 = AXIS2_PLACEMENT_3D ( 'NONE', #180, #130, #199 ) ;
#163 = AXIS2_PLACEMENT_3D ( 'NONE', #165, #150, #5 ) ;
#164 = ORIENTED_EDGE ( 'NONE', *, *, #90, .F. ) ;
#165 = CARTESIAN_POINT ( 'NONE',  ( 0.0000000000000000000, 0.0000000000000000000, 0.0000000000000000000 ) ) ;
#166 = VERTEX_POINT ( 'NONE', #98 ) ;
#167 = CARTESIAN_POINT ( 'NONE',  ( -31.50000000000000000, 3.857637417314162700E-015, -3000.000000000000000 ) ) ;
#168 = DIRECTION ( 'NONE',  ( 0.0000000000000000000, 0.0000000000000000000, 1.000000000000000000 ) ) ;
#169 = EDGE_LOOP ( 'NONE', ( #153, #127, #32, #184 ) ) ;
#170 = STYLED_ITEM ( 'NONE', ( #37 ), #70 ) ;
#171 = DIRECTION ( 'NONE',  ( 1.000000000000000000, 0.0000000000000000000, -0.0000000000000000000 ) ) ;
#172 = DIRECTION ( 'NONE',  ( 0.0000000000000000000, 0.0000000000000000000, 1.000000000000000000 ) ) ;
#173 = DIRECTION ( 'NONE',  ( 0.0000000000000000000, 0.0000000000000000000, 1.000000000000000000 ) ) ;
#174 = COLOUR_RGB ( '',0.7529411764705882200, 0.7529411764705882200, 0.7529411764705882200 ) ;
#175 = PRODUCT_DEFINITION_CONTEXT ( 'detailed design', #18, 'design' ) ;
#176 = AXIS2_PLACEMENT_3D ( 'NONE', #149, #168, #137 ) ;
#177 = DIRECTION ( 'NONE',  ( 1.000000000000000000, 0.0000000000000000000, 0.0000000000000000000 ) ) ;
#178 = CIRCLE ( 'NONE', #139, 31.50000000000000000 ) ;
#179 = CARTESIAN_POINT ( 'NONE',  ( -31.50000000000000000, 3.857637417314162700E-015, 0.0000000000000000000 ) ) ;
#180 = CARTESIAN_POINT ( 'NONE',  ( 0.0000000000000000000, 0.0000000000000000000, 0.0000000000000000000 ) ) ;
#181 = CARTESIAN_POINT ( 'NONE',  ( 0.0000000000000000000, 0.0000000000000000000, -3000.000000000000000 ) ) ;
#182 = VERTEX_POINT ( 'NONE', #167 ) ;
#183 = SURFACE_STYLE_FILL_AREA ( #19 ) ;
#184 = ORIENTED_EDGE ( 'NONE', *, *, #195, .T. ) ;
#185 = APPLICATION_CONTEXT ( 'automotive_design' ) ;
#186 = SURFACE_SIDE_STYLE ('',( #7 ) ) ;
#187 = AXIS2_PLACEMENT_3D ( 'NONE', #61, #47, #80 ) ;
#188 = SURFACE_SIDE_STYLE ('',( #183 ) ) ;
#189 = CARTESIAN_POINT ( 'NONE',  ( -31.50000000000000000, 3.857637417314162700E-015, -3000.000000000000000 ) ) ;
#190 = ORIENTED_EDGE ( 'NONE', *, *, #209, .F. ) ;
#191 = PLANE ( 'NONE',  #94 ) ;
#192 = VERTEX_POINT ( 'NONE', #123 ) ;
#193 = MANIFOLD_SOLID_BREP ( 'Rohr St', #46 ) ;
#194 = CARTESIAN_POINT ( 'NONE',  ( 31.50000000000000000, 0.0000000000000000000, -3000.000000000000000 ) ) ;
#195 = EDGE_CURVE ( 'NONE', #106, #87, #4, .T. ) ;
#196 = PRESENTATION_LAYER_ASSIGNMENT (  '', '', ( #213 ) ) ;
#197 = ORIENTED_EDGE ( 'NONE', *, *, #73, .F. ) ;
#198 = DIRECTION ( 'NONE',  ( 0.0000000000000000000, 0.0000000000000000000, 1.000000000000000000 ) ) ;
#199 = DIRECTION ( 'NONE',  ( 1.000000000000000000, 0.0000000000000000000, 0.0000000000000000000 ) ) ;
#200 = ORIENTED_EDGE ( 'NONE', *, *, #195, .F. ) ;
#201 = EDGE_LOOP ( 'NONE', ( #23, #58 ) ) ;
#202 = AXIS2_PLACEMENT_3D ( 'NONE', #181, #173, #158 ) ;
#203 = LINE ( 'NONE', #194, #211 ) ;
#204 = ORIENTED_EDGE ( 'NONE', *, *, #159, .T. ) ;
#205 = DIRECTION ( 'NONE',  ( 0.0000000000000000000, 0.0000000000000000000, 1.000000000000000000 ) ) ;
#206 = APPLICATION_PROTOCOL_DEFINITION ( 'draft international standard', 'automotive_design', 1998, #185 ) ;
#207 = PRODUCT_RELATED_PRODUCT_CATEGORY ( 'part', '', ( #97 ) ) ;
#208 = DIRECTION ( 'NONE',  ( 0.0000000000000000000, 0.0000000000000000000, 1.000000000000000000 ) ) ;
#209 = EDGE_CURVE ( 'NONE', #192, #106, #6, .T. ) ;
#210 =( GEOMETRIC_REPRESENTATION_CONTEXT ( 3 ) GLOBAL_UNCERTAINTY_ASSIGNED_CONTEXT ( ( #30 ) ) GLOBAL_UNIT_ASSIGNED_CONTEXT ( ( #104, #64, #99 ) ) REPRESENTATION_CONTEXT ( 'NONE', 'WORKASPACE' ) );
#211 = VECTOR ( 'NONE', #110, 1000.000000000000000 ) ;
#212 = ORIENTED_EDGE ( 'NONE', *, *, #114, .T. ) ;
#213 = STYLED_ITEM ( 'NONE', ( #12 ), #193 ) ;
#214 =( LENGTH_UNIT ( ) NAMED_UNIT ( * ) SI_UNIT ( .MILLI., .METRE. ) );
ENDSEC;
END-ISO-10303-21;
