ISO-10303-21;
HEADER;
FILE_DESCRIPTION (( 'STEP AP214' ),
    '1' );
FILE_NAME ('2046570.stp',
    '2017-05-23T12:29:10',
    ( '' ),
    ( '' ),
    'SwSTEP 2.0',
    'SolidWorks 2016',
    '' );
FILE_SCHEMA (( 'AUTOMOTIVE_DESIGN' ));
ENDSEC;

DATA;
#1 = EDGE_LOOP ( 'NONE', ( #134, #19 ) ) ;
#2 = CARTESIAN_POINT ( 'NONE',  ( 0.0000000000000000000, 0.0000000000000000000, -3000.000000000000000 ) ) ;
#3 = CARTESIAN_POINT ( 'NONE',  ( -23.50000000000000400, 2.877919977996280700E-015, -3000.000000000000000 ) ) ;
#4 = CIRCLE ( 'NONE', #179, 23.50000000000000400 ) ;
#5 = CARTESIAN_POINT ( 'NONE',  ( -25.00000000000000000, 3.061616997868383000E-015, 0.0000000000000000000 ) ) ;
#6 = EDGE_LOOP ( 'NONE', ( #73, #212 ) ) ;
#7 = ORIENTED_EDGE ( 'NONE', *, *, #38, .T. ) ;
#8 = AXIS2_PLACEMENT_3D ( 'NONE', #55, #78, #139 ) ;
#9 = SURFACE_SIDE_STYLE ('',( #46 ) ) ;
#10 = DIRECTION ( 'NONE',  ( 0.0000000000000000000, 0.0000000000000000000, 1.000000000000000000 ) ) ;
#11 = APPLICATION_CONTEXT ( 'automotive_design' ) ;
#12 = CARTESIAN_POINT ( 'NONE',  ( 0.0000000000000000000, 0.0000000000000000000, -3000.000000000000000 ) ) ;
#13 = DIRECTION ( 'NONE',  ( 0.0000000000000000000, 0.0000000000000000000, 1.000000000000000000 ) ) ;
#14 = ADVANCED_FACE ( 'NONE', ( #15 ), #174, .F. ) ;
#15 = FACE_OUTER_BOUND ( 'NONE', #184, .T. ) ;
#16 = DIRECTION ( 'NONE',  ( 0.0000000000000000000, 0.0000000000000000000, 1.000000000000000000 ) ) ;
#17 = DIRECTION ( 'NONE',  ( 1.000000000000000000, 0.0000000000000000000, 0.0000000000000000000 ) ) ;
#18 = SURFACE_STYLE_FILL_AREA ( #135 ) ;
#19 = ORIENTED_EDGE ( 'NONE', *, *, #38, .F. ) ;
#20 = CYLINDRICAL_SURFACE ( 'NONE', #136, 23.50000000000000400 ) ;
#21 = AXIS2_PLACEMENT_3D ( 'NONE', #12, #117, #53 ) ;
#22 = AXIS2_PLACEMENT_3D ( 'NONE', #180, #208, #188 ) ;
#23 = ADVANCED_BREP_SHAPE_REPRESENTATION ( '2046570', ( #107, #147 ), #100 ) ;
#24 = CIRCLE ( 'NONE', #109, 25.00000000000000000 ) ;
#25 = STYLED_ITEM ( 'NONE', ( #40 ), #23 ) ;
#26 =( NAMED_UNIT ( * ) PLANE_ANGLE_UNIT ( ) SI_UNIT ( $, .RADIAN. ) );
#27 = CLOSED_SHELL ( 'NONE', ( #201, #60, #203, #90, #80, #14 ) ) ;
#28 = APPLICATION_PROTOCOL_DEFINITION ( 'draft international standard', 'automotive_design', 1998, #81 ) ;
#29 = DIRECTION ( 'NONE',  ( 0.0000000000000000000, 0.0000000000000000000, 1.000000000000000000 ) ) ;
#30 = VERTEX_POINT ( 'NONE', #164 ) ;
#31 = CARTESIAN_POINT ( 'NONE',  ( 23.50000000000000400, 0.0000000000000000000, -3000.000000000000000 ) ) ;
#32 = EDGE_LOOP ( 'NONE', ( #44, #196, #104, #89 ) ) ;
#33 = CARTESIAN_POINT ( 'NONE',  ( 0.0000000000000000000, 0.0000000000000000000, 0.0000000000000000000 ) ) ;
#34 = DIRECTION ( 'NONE',  ( 0.0000000000000000000, 0.0000000000000000000, 1.000000000000000000 ) ) ;
#35 = PRODUCT_DEFINITION_SHAPE ( 'NONE', 'NONE',  #197 ) ;
#36 = ORIENTED_EDGE ( 'NONE', *, *, #171, .F. ) ;
#37 = SURFACE_SIDE_STYLE ('',( #18 ) ) ;
#38 = EDGE_CURVE ( 'NONE', #70, #211, #88, .T. ) ;
#39 = VERTEX_POINT ( 'NONE', #31 ) ;
#40 = PRESENTATION_STYLE_ASSIGNMENT (( #93 ) ) ;
#41 = FILL_AREA_STYLE_COLOUR ( '', #49 ) ;
#42 = DIRECTION ( 'NONE',  ( 1.000000000000000000, 0.0000000000000000000, 0.0000000000000000000 ) ) ;
#43 = DIRECTION ( 'NONE',  ( 1.000000000000000000, 0.0000000000000000000, 0.0000000000000000000 ) ) ;
#44 = ORIENTED_EDGE ( 'NONE', *, *, #137, .T. ) ;
#45 = EDGE_LOOP ( 'NONE', ( #169, #72 ) ) ;
#46 = SURFACE_STYLE_FILL_AREA ( #74 ) ;
#47 = VECTOR ( 'NONE', #10, 1000.000000000000000 ) ;
#48 = EDGE_CURVE ( 'NONE', #121, #70, #189, .T. ) ;
#49 = COLOUR_RGB ( '',0.7529411764705882200, 0.7529411764705882200, 0.7529411764705882200 ) ;
#50 = SHAPE_DEFINITION_REPRESENTATION ( #35, #23 ) ;
#51 =( NAMED_UNIT ( * ) SI_UNIT ( $, .STERADIAN. ) SOLID_ANGLE_UNIT ( ) );
#52 = CARTESIAN_POINT ( 'NONE',  ( 0.0000000000000000000, 0.0000000000000000000, -3000.000000000000000 ) ) ;
#53 = DIRECTION ( 'NONE',  ( 1.000000000000000000, 0.0000000000000000000, 0.0000000000000000000 ) ) ;
#54 = AXIS2_PLACEMENT_3D ( 'NONE', #207, #187, #92 ) ;
#55 = CARTESIAN_POINT ( 'NONE',  ( 0.0000000000000000000, 0.0000000000000000000, 0.0000000000000000000 ) ) ;
#56 = PRESENTATION_LAYER_ASSIGNMENT (  '', '', ( #25 ) ) ;
#57 = DIRECTION ( 'NONE',  ( 1.000000000000000000, 0.0000000000000000000, 0.0000000000000000000 ) ) ;
#58 = CARTESIAN_POINT ( 'NONE',  ( 23.50000000000000400, 0.0000000000000000000, 0.0000000000000000000 ) ) ;
#59 = CARTESIAN_POINT ( 'NONE',  ( 0.0000000000000000000, 0.0000000000000000000, 0.0000000000000000000 ) ) ;
#60 = ADVANCED_FACE ( 'NONE', ( #82 ), #166, .T. ) ;
#61 = CARTESIAN_POINT ( 'NONE',  ( -23.50000000000000400, 2.877919977996280700E-015, 0.0000000000000000000 ) ) ;
#62 = UNCERTAINTY_MEASURE_WITH_UNIT (LENGTH_MEASURE( 1.000000000000000100E-005 ), #202, 'distance_accuracy_value', 'NONE');
#63 = DIRECTION ( 'NONE',  ( 1.000000000000000000, 0.0000000000000000000, 0.0000000000000000000 ) ) ;
#64 =( LENGTH_UNIT ( ) NAMED_UNIT ( * ) SI_UNIT ( .MILLI., .METRE. ) );
#65 = DIRECTION ( 'NONE',  ( 0.0000000000000000000, 0.0000000000000000000, 1.000000000000000000 ) ) ;
#66 = VERTEX_POINT ( 'NONE', #5 ) ;
#67 = EDGE_LOOP ( 'NONE', ( #105, #87 ) ) ;
#68 = AXIS2_PLACEMENT_3D ( 'NONE', #76, #119, #177 ) ;
#69 = COLOUR_RGB ( '',0.7529411764705882200, 0.7529411764705882200, 0.7529411764705882200 ) ;
#70 = VERTEX_POINT ( 'NONE', #61 ) ;
#71 =( NAMED_UNIT ( * ) PLANE_ANGLE_UNIT ( ) SI_UNIT ( $, .RADIAN. ) );
#72 = ORIENTED_EDGE ( 'NONE', *, *, #126, .T. ) ;
#73 = ORIENTED_EDGE ( 'NONE', *, *, #137, .F. ) ;
#74 = FILL_AREA_STYLE ('',( #41 ) ) ;
#75 = FACE_OUTER_BOUND ( 'NONE', #124, .T. ) ;
#76 = CARTESIAN_POINT ( 'NONE',  ( 0.0000000000000000000, 0.0000000000000000000, -3000.000000000000000 ) ) ;
#77 = CYLINDRICAL_SURFACE ( 'NONE', #21, 25.00000000000000000 ) ;
#78 = DIRECTION ( 'NONE',  ( 0.0000000000000000000, 0.0000000000000000000, 1.000000000000000000 ) ) ;
#79 = DIRECTION ( 'NONE',  ( 0.0000000000000000000, 0.0000000000000000000, 1.000000000000000000 ) ) ;
#80 = ADVANCED_FACE ( 'NONE', ( #144, #213 ), #152, .T. ) ;
#81 = APPLICATION_CONTEXT ( 'automotive_design' ) ;
#82 = FACE_OUTER_BOUND ( 'NONE', #32, .T. ) ;
#83 = ORIENTED_EDGE ( 'NONE', *, *, #126, .F. ) ;
#84 = UNCERTAINTY_MEASURE_WITH_UNIT (LENGTH_MEASURE( 1.000000000000000100E-005 ), #176, 'distance_accuracy_value', 'NONE');
#85 = AXIS2_PLACEMENT_3D ( 'NONE', #59, #129, #57 ) ;
#86 = CIRCLE ( 'NONE', #160, 23.50000000000000400 ) ;
#87 = ORIENTED_EDGE ( 'NONE', *, *, #163, .T. ) ;
#88 = CIRCLE ( 'NONE', #85, 23.50000000000000400 ) ;
#89 = ORIENTED_EDGE ( 'NONE', *, *, #133, .F. ) ;
#90 = ADVANCED_FACE ( 'NONE', ( #103, #110 ), #95, .F. ) ;
#91 = CARTESIAN_POINT ( 'NONE',  ( 25.00000000000000000, 0.0000000000000000000, -3000.000000000000000 ) ) ;
#92 = DIRECTION ( 'NONE',  ( 1.000000000000000000, 0.0000000000000000000, 0.0000000000000000000 ) ) ;
#93 = SURFACE_STYLE_USAGE ( .BOTH. , #9 ) ;
#94 = APPLICATION_PROTOCOL_DEFINITION ( 'draft international standard', 'automotive_design', 1998, #11 ) ;
#95 = PLANE ( 'NONE',  #68 ) ;
#96 = CARTESIAN_POINT ( 'NONE',  ( 0.0000000000000000000, 0.0000000000000000000, 0.0000000000000000000 ) ) ;
#97 = VECTOR ( 'NONE', #194, 1000.000000000000000 ) ;
#98 = DIRECTION ( 'NONE',  ( 1.000000000000000000, 0.0000000000000000000, 0.0000000000000000000 ) ) ;
#99 = CARTESIAN_POINT ( 'NONE',  ( 0.0000000000000000000, 0.0000000000000000000, -3000.000000000000000 ) ) ;
#100 =( GEOMETRIC_REPRESENTATION_CONTEXT ( 3 ) GLOBAL_UNCERTAINTY_ASSIGNED_CONTEXT ( ( #198 ) ) GLOBAL_UNIT_ASSIGNED_CONTEXT ( ( #64, #71, #51 ) ) REPRESENTATION_CONTEXT ( 'NONE', 'WORKASPACE' ) );
#101 =( NAMED_UNIT ( * ) SI_UNIT ( $, .STERADIAN. ) SOLID_ANGLE_UNIT ( ) );
#102 = ORIENTED_EDGE ( 'NONE', *, *, #146, .T. ) ;
#103 = FACE_BOUND ( 'NONE', #67, .T. ) ;
#104 = ORIENTED_EDGE ( 'NONE', *, *, #209, .F. ) ;
#105 = ORIENTED_EDGE ( 'NONE', *, *, #148, .T. ) ;
#106 = SURFACE_STYLE_USAGE ( .BOTH. , #37 ) ;
#107 = MANIFOLD_SOLID_BREP ( 'Rohr St', #27 ) ;
#108 = PRODUCT_DEFINITION_CONTEXT ( 'detailed design', #81, 'design' ) ;
#109 = AXIS2_PLACEMENT_3D ( 'NONE', #33, #34, #42 ) ;
#110 = FACE_OUTER_BOUND ( 'NONE', #6, .T. ) ;
#111 = ORIENTED_EDGE ( 'NONE', *, *, #133, .T. ) ;
#112 = ORIENTED_EDGE ( 'NONE', *, *, #200, .F. ) ;
#113 = LINE ( 'NONE', #141, #150 ) ;
#114 = DIRECTION ( 'NONE',  ( 1.000000000000000000, 0.0000000000000000000, 0.0000000000000000000 ) ) ;
#115 = DIRECTION ( 'NONE',  ( 1.000000000000000000, 0.0000000000000000000, 0.0000000000000000000 ) ) ;
#116 = ORIENTED_EDGE ( 'NONE', *, *, #163, .F. ) ;
#117 = DIRECTION ( 'NONE',  ( 0.0000000000000000000, 0.0000000000000000000, 1.000000000000000000 ) ) ;
#118 = EDGE_CURVE ( 'NONE', #211, #70, #86, .T. ) ;
#119 = DIRECTION ( 'NONE',  ( 0.0000000000000000000, 0.0000000000000000000, 1.000000000000000000 ) ) ;
#120 = VERTEX_POINT ( 'NONE', #128 ) ;
#121 = VERTEX_POINT ( 'NONE', #3 ) ;
#122 = CIRCLE ( 'NONE', #199, 23.50000000000000400 ) ;
#123 = PRESENTATION_LAYER_ASSIGNMENT (  '', '', ( #186 ) ) ;
#124 = EDGE_LOOP ( 'NONE', ( #112, #102, #111, #83 ) ) ;
#125 = FACE_OUTER_BOUND ( 'NONE', #214, .T. ) ;
#126 = EDGE_CURVE ( 'NONE', #66, #30, #157, .T. ) ;
#127 = ORIENTED_EDGE ( 'NONE', *, *, #171, .T. ) ;
#128 = CARTESIAN_POINT ( 'NONE',  ( 25.00000000000000000, 0.0000000000000000000, -3000.000000000000000 ) ) ;
#129 = DIRECTION ( 'NONE',  ( 0.0000000000000000000, 0.0000000000000000000, 1.000000000000000000 ) ) ;
#130 = CIRCLE ( 'NONE', #155, 25.00000000000000000 ) ;
#131 = DIRECTION ( 'NONE',  ( 0.0000000000000000000, 0.0000000000000000000, 1.000000000000000000 ) ) ;
#132 = MECHANICAL_DESIGN_GEOMETRIC_PRESENTATION_REPRESENTATION (  '', ( #186 ), #168 ) ;
#133 = EDGE_CURVE ( 'NONE', #120, #30, #183, .T. ) ;
#134 = ORIENTED_EDGE ( 'NONE', *, *, #118, .F. ) ;
#135 = FILL_AREA_STYLE ('',( #191 ) ) ;
#136 = AXIS2_PLACEMENT_3D ( 'NONE', #173, #16, #63 ) ;
#137 = EDGE_CURVE ( 'NONE', #120, #172, #153, .T. ) ;
#138 = DIRECTION ( 'NONE',  ( 0.0000000000000000000, 0.0000000000000000000, 1.000000000000000000 ) ) ;
#139 = DIRECTION ( 'NONE',  ( 1.000000000000000000, 0.0000000000000000000, -0.0000000000000000000 ) ) ;
#140 = VECTOR ( 'NONE', #204, 1000.000000000000000 ) ;
#141 = CARTESIAN_POINT ( 'NONE',  ( -25.00000000000000000, 3.061616997868383000E-015, -3000.000000000000000 ) ) ;
#142 = CARTESIAN_POINT ( 'NONE',  ( 0.0000000000000000000, 0.0000000000000000000, 0.0000000000000000000 ) ) ;
#143 =( GEOMETRIC_REPRESENTATION_CONTEXT ( 3 ) GLOBAL_UNCERTAINTY_ASSIGNED_CONTEXT ( ( #84 ) ) GLOBAL_UNIT_ASSIGNED_CONTEXT ( ( #176, #205, #101 ) ) REPRESENTATION_CONTEXT ( 'NONE', 'WORKASPACE' ) );
#144 = FACE_BOUND ( 'NONE', #1, .T. ) ;
#145 = AXIS2_PLACEMENT_3D ( 'NONE', #52, #13, #114 ) ;
#146 = EDGE_CURVE ( 'NONE', #172, #120, #130, .T. ) ;
#147 = AXIS2_PLACEMENT_3D ( 'NONE', #96, #29, #98 ) ;
#148 = EDGE_CURVE ( 'NONE', #39, #121, #122, .T. ) ;
#149 = ORIENTED_EDGE ( 'NONE', *, *, #118, .T. ) ;
#150 = VECTOR ( 'NONE', #170, 1000.000000000000000 ) ;
#151 = PRODUCT_DEFINITION_FORMATION_WITH_SPECIFIED_SOURCE ( 'ANY', '', #165, .NOT_KNOWN. ) ;
#152 = PLANE ( 'NONE',  #8 ) ;
#153 = CIRCLE ( 'NONE', #181, 25.00000000000000000 ) ;
#154 = DIRECTION ( 'NONE',  ( 0.0000000000000000000, 0.0000000000000000000, 1.000000000000000000 ) ) ;
#155 = AXIS2_PLACEMENT_3D ( 'NONE', #99, #65, #193 ) ;
#156 = PRODUCT_RELATED_PRODUCT_CATEGORY ( 'part', '', ( #165 ) ) ;
#157 = CIRCLE ( 'NONE', #22, 25.00000000000000000 ) ;
#158 = PRESENTATION_STYLE_ASSIGNMENT (( #106 ) ) ;
#159 = MECHANICAL_DESIGN_GEOMETRIC_PRESENTATION_REPRESENTATION (  '', ( #25 ), #143 ) ;
#160 = AXIS2_PLACEMENT_3D ( 'NONE', #142, #154, #17 ) ;
#161 = CARTESIAN_POINT ( 'NONE',  ( 0.0000000000000000000, 0.0000000000000000000, -3000.000000000000000 ) ) ;
#162 = CARTESIAN_POINT ( 'NONE',  ( 0.0000000000000000000, 0.0000000000000000000, -3000.000000000000000 ) ) ;
#163 = EDGE_CURVE ( 'NONE', #121, #39, #4, .T. ) ;
#164 = CARTESIAN_POINT ( 'NONE',  ( 25.00000000000000000, 0.0000000000000000000, 0.0000000000000000000 ) ) ;
#165 = PRODUCT ( '2046570', '2046570', '', ( #210 ) ) ;
#166 = CYLINDRICAL_SURFACE ( 'NONE', #145, 25.00000000000000000 ) ;
#167 = ORIENTED_EDGE ( 'NONE', *, *, #48, .T. ) ;
#168 =( GEOMETRIC_REPRESENTATION_CONTEXT ( 3 ) GLOBAL_UNCERTAINTY_ASSIGNED_CONTEXT ( ( #62 ) ) GLOBAL_UNIT_ASSIGNED_CONTEXT ( ( #202, #26, #195 ) ) REPRESENTATION_CONTEXT ( 'NONE', 'WORKASPACE' ) );
#169 = ORIENTED_EDGE ( 'NONE', *, *, #209, .T. ) ;
#170 = DIRECTION ( 'NONE',  ( 0.0000000000000000000, 0.0000000000000000000, 1.000000000000000000 ) ) ;
#171 = EDGE_CURVE ( 'NONE', #39, #211, #206, .T. ) ;
#172 = VERTEX_POINT ( 'NONE', #185 ) ;
#173 = CARTESIAN_POINT ( 'NONE',  ( 0.0000000000000000000, 0.0000000000000000000, -3000.000000000000000 ) ) ;
#174 = CYLINDRICAL_SURFACE ( 'NONE', #54, 23.50000000000000400 ) ;
#175 = CARTESIAN_POINT ( 'NONE',  ( -23.50000000000000400, 2.877919977996280700E-015, -3000.000000000000000 ) ) ;
#176 =( LENGTH_UNIT ( ) NAMED_UNIT ( * ) SI_UNIT ( .MILLI., .METRE. ) );
#177 = DIRECTION ( 'NONE',  ( 1.000000000000000000, 0.0000000000000000000, -0.0000000000000000000 ) ) ;
#178 = CARTESIAN_POINT ( 'NONE',  ( 23.50000000000000400, 0.0000000000000000000, -3000.000000000000000 ) ) ;
#179 = AXIS2_PLACEMENT_3D ( 'NONE', #161, #138, #115 ) ;
#180 = CARTESIAN_POINT ( 'NONE',  ( 0.0000000000000000000, 0.0000000000000000000, 0.0000000000000000000 ) ) ;
#181 = AXIS2_PLACEMENT_3D ( 'NONE', #2, #131, #43 ) ;
#182 = ORIENTED_EDGE ( 'NONE', *, *, #148, .F. ) ;
#183 = LINE ( 'NONE', #91, #140 ) ;
#184 = EDGE_LOOP ( 'NONE', ( #190, #182, #127, #149 ) ) ;
#185 = CARTESIAN_POINT ( 'NONE',  ( -25.00000000000000000, 3.061616997868383000E-015, -3000.000000000000000 ) ) ;
#186 = STYLED_ITEM ( 'NONE', ( #158 ), #107 ) ;
#187 = DIRECTION ( 'NONE',  ( 0.0000000000000000000, 0.0000000000000000000, 1.000000000000000000 ) ) ;
#188 = DIRECTION ( 'NONE',  ( 1.000000000000000000, 0.0000000000000000000, 0.0000000000000000000 ) ) ;
#189 = LINE ( 'NONE', #175, #47 ) ;
#190 = ORIENTED_EDGE ( 'NONE', *, *, #48, .F. ) ;
#191 = FILL_AREA_STYLE_COLOUR ( '', #69 ) ;
#192 = DIRECTION ( 'NONE',  ( 1.000000000000000000, 0.0000000000000000000, 0.0000000000000000000 ) ) ;
#193 = DIRECTION ( 'NONE',  ( 1.000000000000000000, 0.0000000000000000000, 0.0000000000000000000 ) ) ;
#194 = DIRECTION ( 'NONE',  ( 0.0000000000000000000, 0.0000000000000000000, 1.000000000000000000 ) ) ;
#195 =( NAMED_UNIT ( * ) SI_UNIT ( $, .STERADIAN. ) SOLID_ANGLE_UNIT ( ) );
#196 = ORIENTED_EDGE ( 'NONE', *, *, #200, .T. ) ;
#197 = PRODUCT_DEFINITION ( 'UNKNOWN', '', #151, #108 ) ;
#198 = UNCERTAINTY_MEASURE_WITH_UNIT (LENGTH_MEASURE( 1.000000000000000100E-005 ), #64, 'distance_accuracy_value', 'NONE');
#199 = AXIS2_PLACEMENT_3D ( 'NONE', #162, #79, #192 ) ;
#200 = EDGE_CURVE ( 'NONE', #172, #66, #113, .T. ) ;
#201 = ADVANCED_FACE ( 'NONE', ( #125 ), #20, .F. ) ;
#202 =( LENGTH_UNIT ( ) NAMED_UNIT ( * ) SI_UNIT ( .MILLI., .METRE. ) );
#203 = ADVANCED_FACE ( 'NONE', ( #75 ), #77, .T. ) ;
#204 = DIRECTION ( 'NONE',  ( 0.0000000000000000000, 0.0000000000000000000, 1.000000000000000000 ) ) ;
#205 =( NAMED_UNIT ( * ) PLANE_ANGLE_UNIT ( ) SI_UNIT ( $, .RADIAN. ) );
#206 = LINE ( 'NONE', #178, #97 ) ;
#207 = CARTESIAN_POINT ( 'NONE',  ( 0.0000000000000000000, 0.0000000000000000000, -3000.000000000000000 ) ) ;
#208 = DIRECTION ( 'NONE',  ( 0.0000000000000000000, 0.0000000000000000000, 1.000000000000000000 ) ) ;
#209 = EDGE_CURVE ( 'NONE', #30, #66, #24, .T. ) ;
#210 = PRODUCT_CONTEXT ( 'NONE', #11, 'mechanical' ) ;
#211 = VERTEX_POINT ( 'NONE', #58 ) ;
#212 = ORIENTED_EDGE ( 'NONE', *, *, #146, .F. ) ;
#213 = FACE_OUTER_BOUND ( 'NONE', #45, .T. ) ;
#214 = EDGE_LOOP ( 'NONE', ( #116, #167, #7, #36 ) ) ;
ENDSEC;
END-ISO-10303-21;
