ISO-10303-21;
HEADER;
FILE_DESCRIPTION (( 'STEP AP214' ),
    '1' );
FILE_NAME ('2046569.stp',
    '2017-05-23T12:27:07',
    ( '' ),
    ( '' ),
    'SwSTEP 2.0',
    'SolidWorks 2016',
    '' );
FILE_SCHEMA (( 'AUTOMOTIVE_DESIGN' ));
ENDSEC;

DATA;
#1 = DIRECTION ( 'NONE',  ( 1.000000000000000000, 0.0000000000000000000, 0.0000000000000000000 ) ) ;
#2 = DIRECTION ( 'NONE',  ( 1.000000000000000000, 0.0000000000000000000, 0.0000000000000000000 ) ) ;
#3 = CYLINDRICAL_SURFACE ( 'NONE', #181, 20.00000000000000000 ) ;
#4 = EDGE_LOOP ( 'NONE', ( #17, #173, #120, #28 ) ) ;
#5 = PRODUCT_DEFINITION ( 'UNKNOWN', '', #132, #211 ) ;
#6 = ADVANCED_FACE ( 'NONE', ( #170 ), #107, .F. ) ;
#7 = CARTESIAN_POINT ( 'NONE',  ( -18.80000000000000100, 2.302335982397023900E-015, -3000.000000000000000 ) ) ;
#8 = CARTESIAN_POINT ( 'NONE',  ( 0.0000000000000000000, 0.0000000000000000000, -3000.000000000000000 ) ) ;
#9 = VECTOR ( 'NONE', #112, 1000.000000000000000 ) ;
#10 = LINE ( 'NONE', #205, #80 ) ;
#11 = FACE_OUTER_BOUND ( 'NONE', #162, .T. ) ;
#12 = CARTESIAN_POINT ( 'NONE',  ( 0.0000000000000000000, 0.0000000000000000000, -3000.000000000000000 ) ) ;
#13 = EDGE_CURVE ( 'NONE', #71, #124, #95, .T. ) ;
#14 = CIRCLE ( 'NONE', #157, 20.00000000000000000 ) ;
#15 = PRODUCT_RELATED_PRODUCT_CATEGORY ( 'part', '', ( #68 ) ) ;
#16 = CIRCLE ( 'NONE', #138, 18.80000000000000100 ) ;
#17 = ORIENTED_EDGE ( 'NONE', *, *, #194, .F. ) ;
#18 = ORIENTED_EDGE ( 'NONE', *, *, #146, .T. ) ;
#19 = LINE ( 'NONE', #50, #183 ) ;
#20 = DIRECTION ( 'NONE',  ( 0.0000000000000000000, 0.0000000000000000000, 1.000000000000000000 ) ) ;
#21 = CARTESIAN_POINT ( 'NONE',  ( 18.80000000000000100, 0.0000000000000000000, 0.0000000000000000000 ) ) ;
#22 = CIRCLE ( 'NONE', #93, 18.80000000000000100 ) ;
#23 = DIRECTION ( 'NONE',  ( 1.000000000000000000, 0.0000000000000000000, 0.0000000000000000000 ) ) ;
#24 =( LENGTH_UNIT ( ) NAMED_UNIT ( * ) SI_UNIT ( .MILLI., .METRE. ) );
#25 = FILL_AREA_STYLE ('',( #35 ) ) ;
#26 = ORIENTED_EDGE ( 'NONE', *, *, #29, .F. ) ;
#27 = PLANE ( 'NONE',  #172 ) ;
#28 = ORIENTED_EDGE ( 'NONE', *, *, #67, .F. ) ;
#29 = EDGE_CURVE ( 'NONE', #52, #212, #159, .T. ) ;
#30 = ORIENTED_EDGE ( 'NONE', *, *, #13, .F. ) ;
#31 = ORIENTED_EDGE ( 'NONE', *, *, #78, .F. ) ;
#32 = CYLINDRICAL_SURFACE ( 'NONE', #182, 20.00000000000000000 ) ;
#33 = CARTESIAN_POINT ( 'NONE',  ( 18.80000000000000100, 0.0000000000000000000, -3000.000000000000000 ) ) ;
#34 = EDGE_LOOP ( 'NONE', ( #137, #30, #18, #136 ) ) ;
#35 = FILL_AREA_STYLE_COLOUR ( '', #174 ) ;
#36 = VERTEX_POINT ( 'NONE', #21 ) ;
#37 = DIRECTION ( 'NONE',  ( 0.0000000000000000000, 0.0000000000000000000, 1.000000000000000000 ) ) ;
#38 = FACE_OUTER_BOUND ( 'NONE', #110, .T. ) ;
#39 = CIRCLE ( 'NONE', #158, 20.00000000000000000 ) ;
#40 = EDGE_LOOP ( 'NONE', ( #26, #31 ) ) ;
#41 = SURFACE_STYLE_FILL_AREA ( #25 ) ;
#42 = AXIS2_PLACEMENT_3D ( 'NONE', #118, #102, #66 ) ;
#43 = CIRCLE ( 'NONE', #72, 18.80000000000000100 ) ;
#44 = APPLICATION_CONTEXT ( 'automotive_design' ) ;
#45 = ADVANCED_FACE ( 'NONE', ( #191, #114 ), #100, .F. ) ;
#46 = ORIENTED_EDGE ( 'NONE', *, *, #111, .T. ) ;
#47 = DIRECTION ( 'NONE',  ( 1.000000000000000000, 0.0000000000000000000, -0.0000000000000000000 ) ) ;
#48 =( NAMED_UNIT ( * ) SI_UNIT ( $, .STERADIAN. ) SOLID_ANGLE_UNIT ( ) );
#49 = DIRECTION ( 'NONE',  ( 0.0000000000000000000, 0.0000000000000000000, 1.000000000000000000 ) ) ;
#50 = CARTESIAN_POINT ( 'NONE',  ( -20.00000000000000000, 2.449293598294706500E-015, -3000.000000000000000 ) ) ;
#51 = STYLED_ITEM ( 'NONE', ( #184 ), #125 ) ;
#52 = VERTEX_POINT ( 'NONE', #75 ) ;
#53 = DIRECTION ( 'NONE',  ( 1.000000000000000000, 0.0000000000000000000, 0.0000000000000000000 ) ) ;
#54 = EDGE_CURVE ( 'NONE', #36, #160, #22, .T. ) ;
#55 = CARTESIAN_POINT ( 'NONE',  ( 20.00000000000000000, 0.0000000000000000000, -3000.000000000000000 ) ) ;
#56 = DIRECTION ( 'NONE',  ( 1.000000000000000000, 0.0000000000000000000, 0.0000000000000000000 ) ) ;
#57 = CARTESIAN_POINT ( 'NONE',  ( 0.0000000000000000000, 0.0000000000000000000, -3000.000000000000000 ) ) ;
#58 = ADVANCED_FACE ( 'NONE', ( #38 ), #214, .F. ) ;
#59 = CARTESIAN_POINT ( 'NONE',  ( 0.0000000000000000000, 0.0000000000000000000, 0.0000000000000000000 ) ) ;
#60 = ADVANCED_FACE ( 'NONE', ( #64 ), #32, .T. ) ;
#61 = ADVANCED_FACE ( 'NONE', ( #79 ), #3, .T. ) ;
#62 = EDGE_CURVE ( 'NONE', #113, #179, #39, .T. ) ;
#63 = PRODUCT_DEFINITION_SHAPE ( 'NONE', 'NONE',  #5 ) ;
#64 = FACE_OUTER_BOUND ( 'NONE', #4, .T. ) ;
#65 = FILL_AREA_STYLE ('',( #152 ) ) ;
#66 = DIRECTION ( 'NONE',  ( 1.000000000000000000, 0.0000000000000000000, 0.0000000000000000000 ) ) ;
#67 = EDGE_CURVE ( 'NONE', #179, #113, #164, .T. ) ;
#68 = PRODUCT ( '2046569', '2046569', '', ( #187 ) ) ;
#69 = DIRECTION ( 'NONE',  ( 1.000000000000000000, 0.0000000000000000000, -0.0000000000000000000 ) ) ;
#70 = DIRECTION ( 'NONE',  ( 1.000000000000000000, 0.0000000000000000000, 0.0000000000000000000 ) ) ;
#71 = VERTEX_POINT ( 'NONE', #33 ) ;
#72 = AXIS2_PLACEMENT_3D ( 'NONE', #85, #83, #144 ) ;
#73 = DIRECTION ( 'NONE',  ( 0.0000000000000000000, 0.0000000000000000000, 1.000000000000000000 ) ) ;
#74 = ADVANCED_FACE ( 'NONE', ( #130, #11 ), #27, .T. ) ;
#75 = CARTESIAN_POINT ( 'NONE',  ( 20.00000000000000000, 0.0000000000000000000, -3000.000000000000000 ) ) ;
#76 = UNCERTAINTY_MEASURE_WITH_UNIT (LENGTH_MEASURE( 1.000000000000000100E-005 ), #175, 'distance_accuracy_value', 'NONE');
#77 = PRESENTATION_LAYER_ASSIGNMENT (  '', '', ( #208 ) ) ;
#78 = EDGE_CURVE ( 'NONE', #212, #52, #14, .T. ) ;
#79 = FACE_OUTER_BOUND ( 'NONE', #129, .T. ) ;
#80 = VECTOR ( 'NONE', #206, 1000.000000000000000 ) ;
#81 = DIRECTION ( 'NONE',  ( 0.0000000000000000000, 0.0000000000000000000, 1.000000000000000000 ) ) ;
#82 = ORIENTED_EDGE ( 'NONE', *, *, #62, .T. ) ;
#83 = DIRECTION ( 'NONE',  ( 0.0000000000000000000, 0.0000000000000000000, 1.000000000000000000 ) ) ;
#84 = EDGE_CURVE ( 'NONE', #124, #160, #207, .T. ) ;
#85 = CARTESIAN_POINT ( 'NONE',  ( 0.0000000000000000000, 0.0000000000000000000, -3000.000000000000000 ) ) ;
#86 = ORIENTED_EDGE ( 'NONE', *, *, #168, .F. ) ;
#87 = SHAPE_DEFINITION_REPRESENTATION ( #63, #96 ) ;
#88 = CARTESIAN_POINT ( 'NONE',  ( 0.0000000000000000000, 0.0000000000000000000, -3000.000000000000000 ) ) ;
#89 =( LENGTH_UNIT ( ) NAMED_UNIT ( * ) SI_UNIT ( .MILLI., .METRE. ) );
#90 = DIRECTION ( 'NONE',  ( 1.000000000000000000, 0.0000000000000000000, 0.0000000000000000000 ) ) ;
#91 = DIRECTION ( 'NONE',  ( 1.000000000000000000, 0.0000000000000000000, 0.0000000000000000000 ) ) ;
#92 = MECHANICAL_DESIGN_GEOMETRIC_PRESENTATION_REPRESENTATION (  '', ( #208 ), #127 ) ;
#93 = AXIS2_PLACEMENT_3D ( 'NONE', #126, #195, #70 ) ;
#94 = CARTESIAN_POINT ( 'NONE',  ( 0.0000000000000000000, 0.0000000000000000000, -3000.000000000000000 ) ) ;
#95 = CIRCLE ( 'NONE', #139, 18.80000000000000100 ) ;
#96 = ADVANCED_BREP_SHAPE_REPRESENTATION ( '2046569', ( #125, #203 ), #177 ) ;
#97 = SURFACE_STYLE_FILL_AREA ( #65 ) ;
#98 = CARTESIAN_POINT ( 'NONE',  ( -18.80000000000000100, 2.302335982397023900E-015, -3000.000000000000000 ) ) ;
#99 = SURFACE_STYLE_USAGE ( .BOTH. , #147 ) ;
#100 = PLANE ( 'NONE',  #105 ) ;
#101 = DIRECTION ( 'NONE',  ( 1.000000000000000000, 0.0000000000000000000, 0.0000000000000000000 ) ) ;
#102 = DIRECTION ( 'NONE',  ( 0.0000000000000000000, 0.0000000000000000000, 1.000000000000000000 ) ) ;
#103 = LINE ( 'NONE', #55, #201 ) ;
#104 = DIRECTION ( 'NONE',  ( 0.0000000000000000000, 0.0000000000000000000, 1.000000000000000000 ) ) ;
#105 = AXIS2_PLACEMENT_3D ( 'NONE', #169, #73, #69 ) ;
#106 = EDGE_LOOP ( 'NONE', ( #185, #161 ) ) ;
#107 = CYLINDRICAL_SURFACE ( 'NONE', #42, 18.80000000000000100 ) ;
#108 = APPLICATION_CONTEXT ( 'automotive_design' ) ;
#109 = AXIS2_PLACEMENT_3D ( 'NONE', #180, #209, #1 ) ;
#110 = EDGE_LOOP ( 'NONE', ( #86, #123, #46, #193 ) ) ;
#111 = EDGE_CURVE ( 'NONE', #160, #36, #16, .T. ) ;
#112 = DIRECTION ( 'NONE',  ( 0.0000000000000000000, 0.0000000000000000000, 1.000000000000000000 ) ) ;
#113 = VERTEX_POINT ( 'NONE', #176 ) ;
#114 = FACE_OUTER_BOUND ( 'NONE', #40, .T. ) ;
#115 = DIRECTION ( 'NONE',  ( 0.0000000000000000000, 0.0000000000000000000, 1.000000000000000000 ) ) ;
#116 = DIRECTION ( 'NONE',  ( 0.0000000000000000000, 0.0000000000000000000, 1.000000000000000000 ) ) ;
#117 = DIRECTION ( 'NONE',  ( 0.0000000000000000000, 0.0000000000000000000, 1.000000000000000000 ) ) ;
#118 = CARTESIAN_POINT ( 'NONE',  ( 0.0000000000000000000, 0.0000000000000000000, -3000.000000000000000 ) ) ;
#119 =( NAMED_UNIT ( * ) SI_UNIT ( $, .STERADIAN. ) SOLID_ANGLE_UNIT ( ) );
#120 = ORIENTED_EDGE ( 'NONE', *, *, #128, .T. ) ;
#121 = CARTESIAN_POINT ( 'NONE',  ( 0.0000000000000000000, 0.0000000000000000000, -3000.000000000000000 ) ) ;
#122 = CARTESIAN_POINT ( 'NONE',  ( 0.0000000000000000000, 0.0000000000000000000, 0.0000000000000000000 ) ) ;
#123 = ORIENTED_EDGE ( 'NONE', *, *, #84, .T. ) ;
#124 = VERTEX_POINT ( 'NONE', #98 ) ;
#125 = MANIFOLD_SOLID_BREP ( 'Rohr St', #198 ) ;
#126 = CARTESIAN_POINT ( 'NONE',  ( 0.0000000000000000000, 0.0000000000000000000, 0.0000000000000000000 ) ) ;
#127 =( GEOMETRIC_REPRESENTATION_CONTEXT ( 3 ) GLOBAL_UNCERTAINTY_ASSIGNED_CONTEXT ( ( #131 ) ) GLOBAL_UNIT_ASSIGNED_CONTEXT ( ( #89, #192, #48 ) ) REPRESENTATION_CONTEXT ( 'NONE', 'WORKASPACE' ) );
#128 = EDGE_CURVE ( 'NONE', #52, #113, #103, .T. ) ;
#129 = EDGE_LOOP ( 'NONE', ( #140, #213, #200, #141 ) ) ;
#130 = FACE_BOUND ( 'NONE', #145, .T. ) ;
#131 = UNCERTAINTY_MEASURE_WITH_UNIT (LENGTH_MEASURE( 1.000000000000000100E-005 ), #89, 'distance_accuracy_value', 'NONE');
#132 = PRODUCT_DEFINITION_FORMATION_WITH_SPECIFIED_SOURCE ( 'ANY', '', #68, .NOT_KNOWN. ) ;
#133 = ORIENTED_EDGE ( 'NONE', *, *, #54, .F. ) ;
#134 = DIRECTION ( 'NONE',  ( 0.0000000000000000000, 0.0000000000000000000, 1.000000000000000000 ) ) ;
#135 = SURFACE_STYLE_USAGE ( .BOTH. , #166 ) ;
#136 = ORIENTED_EDGE ( 'NONE', *, *, #54, .T. ) ;
#137 = ORIENTED_EDGE ( 'NONE', *, *, #84, .F. ) ;
#138 = AXIS2_PLACEMENT_3D ( 'NONE', #167, #148, #91 ) ;
#139 = AXIS2_PLACEMENT_3D ( 'NONE', #121, #104, #101 ) ;
#140 = ORIENTED_EDGE ( 'NONE', *, *, #29, .T. ) ;
#141 = ORIENTED_EDGE ( 'NONE', *, *, #128, .F. ) ;
#142 = PRESENTATION_STYLE_ASSIGNMENT (( #99 ) ) ;
#143 = CARTESIAN_POINT ( 'NONE',  ( -20.00000000000000000, 2.449293598294706500E-015, -3000.000000000000000 ) ) ;
#144 = DIRECTION ( 'NONE',  ( 1.000000000000000000, 0.0000000000000000000, 0.0000000000000000000 ) ) ;
#145 = EDGE_LOOP ( 'NONE', ( #133, #202 ) ) ;
#146 = EDGE_CURVE ( 'NONE', #71, #36, #10, .T. ) ;
#147 = SURFACE_SIDE_STYLE ('',( #97 ) ) ;
#148 = DIRECTION ( 'NONE',  ( 0.0000000000000000000, 0.0000000000000000000, 1.000000000000000000 ) ) ;
#149 = CARTESIAN_POINT ( 'NONE',  ( -20.00000000000000000, 2.449293598294706500E-015, 0.0000000000000000000 ) ) ;
#150 =( NAMED_UNIT ( * ) SI_UNIT ( $, .STERADIAN. ) SOLID_ANGLE_UNIT ( ) );
#151 = CARTESIAN_POINT ( 'NONE',  ( 0.0000000000000000000, 0.0000000000000000000, 0.0000000000000000000 ) ) ;
#152 = FILL_AREA_STYLE_COLOUR ( '', #153 ) ;
#153 = COLOUR_RGB ( '',0.7529411764705882200, 0.7529411764705882200, 0.7529411764705882200 ) ;
#154 = PRESENTATION_LAYER_ASSIGNMENT (  '', '', ( #51 ) ) ;
#155 =( NAMED_UNIT ( * ) PLANE_ANGLE_UNIT ( ) SI_UNIT ( $, .RADIAN. ) );
#156 = CARTESIAN_POINT ( 'NONE',  ( -18.80000000000000100, 2.302335982397023900E-015, 0.0000000000000000000 ) ) ;
#157 = AXIS2_PLACEMENT_3D ( 'NONE', #88, #117, #23 ) ;
#158 = AXIS2_PLACEMENT_3D ( 'NONE', #151, #115, #56 ) ;
#159 = CIRCLE ( 'NONE', #204, 20.00000000000000000 ) ;
#160 = VERTEX_POINT ( 'NONE', #156 ) ;
#161 = ORIENTED_EDGE ( 'NONE', *, *, #168, .T. ) ;
#162 = EDGE_LOOP ( 'NONE', ( #82, #190 ) ) ;
#163 =( GEOMETRIC_REPRESENTATION_CONTEXT ( 3 ) GLOBAL_UNCERTAINTY_ASSIGNED_CONTEXT ( ( #76 ) ) GLOBAL_UNIT_ASSIGNED_CONTEXT ( ( #175, #178, #119 ) ) REPRESENTATION_CONTEXT ( 'NONE', 'WORKASPACE' ) );
#164 = CIRCLE ( 'NONE', #109, 20.00000000000000000 ) ;
#165 = AXIS2_PLACEMENT_3D ( 'NONE', #8, #49, #53 ) ;
#166 = SURFACE_SIDE_STYLE ('',( #41 ) ) ;
#167 = CARTESIAN_POINT ( 'NONE',  ( 0.0000000000000000000, 0.0000000000000000000, 0.0000000000000000000 ) ) ;
#168 = EDGE_CURVE ( 'NONE', #124, #71, #43, .T. ) ;
#169 = CARTESIAN_POINT ( 'NONE',  ( 0.0000000000000000000, 0.0000000000000000000, -3000.000000000000000 ) ) ;
#170 = FACE_OUTER_BOUND ( 'NONE', #34, .T. ) ;
#171 = APPLICATION_PROTOCOL_DEFINITION ( 'draft international standard', 'automotive_design', 1998, #44 ) ;
#172 = AXIS2_PLACEMENT_3D ( 'NONE', #122, #134, #47 ) ;
#173 = ORIENTED_EDGE ( 'NONE', *, *, #78, .T. ) ;
#174 = COLOUR_RGB ( '',0.7529411764705882200, 0.7529411764705882200, 0.7529411764705882200 ) ;
#175 =( LENGTH_UNIT ( ) NAMED_UNIT ( * ) SI_UNIT ( .MILLI., .METRE. ) );
#176 = CARTESIAN_POINT ( 'NONE',  ( 20.00000000000000000, 0.0000000000000000000, 0.0000000000000000000 ) ) ;
#177 =( GEOMETRIC_REPRESENTATION_CONTEXT ( 3 ) GLOBAL_UNCERTAINTY_ASSIGNED_CONTEXT ( ( #210 ) ) GLOBAL_UNIT_ASSIGNED_CONTEXT ( ( #24, #155, #150 ) ) REPRESENTATION_CONTEXT ( 'NONE', 'WORKASPACE' ) );
#178 =( NAMED_UNIT ( * ) PLANE_ANGLE_UNIT ( ) SI_UNIT ( $, .RADIAN. ) );
#179 = VERTEX_POINT ( 'NONE', #149 ) ;
#180 = CARTESIAN_POINT ( 'NONE',  ( 0.0000000000000000000, 0.0000000000000000000, 0.0000000000000000000 ) ) ;
#181 = AXIS2_PLACEMENT_3D ( 'NONE', #12, #37, #2 ) ;
#182 = AXIS2_PLACEMENT_3D ( 'NONE', #57, #116, #197 ) ;
#183 = VECTOR ( 'NONE', #81, 1000.000000000000000 ) ;
#184 = PRESENTATION_STYLE_ASSIGNMENT (( #135 ) ) ;
#185 = ORIENTED_EDGE ( 'NONE', *, *, #13, .T. ) ;
#186 = APPLICATION_PROTOCOL_DEFINITION ( 'draft international standard', 'automotive_design', 1998, #108 ) ;
#187 = PRODUCT_CONTEXT ( 'NONE', #44, 'mechanical' ) ;
#188 = MECHANICAL_DESIGN_GEOMETRIC_PRESENTATION_REPRESENTATION (  '', ( #51 ), #163 ) ;
#189 = DIRECTION ( 'NONE',  ( 1.000000000000000000, 0.0000000000000000000, 0.0000000000000000000 ) ) ;
#190 = ORIENTED_EDGE ( 'NONE', *, *, #67, .T. ) ;
#191 = FACE_BOUND ( 'NONE', #106, .T. ) ;
#192 =( NAMED_UNIT ( * ) PLANE_ANGLE_UNIT ( ) SI_UNIT ( $, .RADIAN. ) );
#193 = ORIENTED_EDGE ( 'NONE', *, *, #146, .F. ) ;
#194 = EDGE_CURVE ( 'NONE', #212, #179, #19, .T. ) ;
#195 = DIRECTION ( 'NONE',  ( 0.0000000000000000000, 0.0000000000000000000, 1.000000000000000000 ) ) ;
#196 = DIRECTION ( 'NONE',  ( 0.0000000000000000000, 0.0000000000000000000, 1.000000000000000000 ) ) ;
#197 = DIRECTION ( 'NONE',  ( 1.000000000000000000, 0.0000000000000000000, 0.0000000000000000000 ) ) ;
#198 = CLOSED_SHELL ( 'NONE', ( #58, #61, #60, #45, #74, #6 ) ) ;
#199 = DIRECTION ( 'NONE',  ( 0.0000000000000000000, 0.0000000000000000000, 1.000000000000000000 ) ) ;
#200 = ORIENTED_EDGE ( 'NONE', *, *, #62, .F. ) ;
#201 = VECTOR ( 'NONE', #196, 1000.000000000000000 ) ;
#202 = ORIENTED_EDGE ( 'NONE', *, *, #111, .F. ) ;
#203 = AXIS2_PLACEMENT_3D ( 'NONE', #59, #20, #189 ) ;
#204 = AXIS2_PLACEMENT_3D ( 'NONE', #94, #199, #90 ) ;
#205 = CARTESIAN_POINT ( 'NONE',  ( 18.80000000000000100, 0.0000000000000000000, -3000.000000000000000 ) ) ;
#206 = DIRECTION ( 'NONE',  ( 0.0000000000000000000, 0.0000000000000000000, 1.000000000000000000 ) ) ;
#207 = LINE ( 'NONE', #7, #9 ) ;
#208 = STYLED_ITEM ( 'NONE', ( #142 ), #96 ) ;
#209 = DIRECTION ( 'NONE',  ( 0.0000000000000000000, 0.0000000000000000000, 1.000000000000000000 ) ) ;
#210 = UNCERTAINTY_MEASURE_WITH_UNIT (LENGTH_MEASURE( 1.000000000000000100E-005 ), #24, 'distance_accuracy_value', 'NONE');
#211 = PRODUCT_DEFINITION_CONTEXT ( 'detailed design', #108, 'design' ) ;
#212 = VERTEX_POINT ( 'NONE', #143 ) ;
#213 = ORIENTED_EDGE ( 'NONE', *, *, #194, .T. ) ;
#214 = CYLINDRICAL_SURFACE ( 'NONE', #165, 18.80000000000000100 ) ;
ENDSEC;
END-ISO-10303-21;
