ISO-10303-21;
HEADER;
FILE_DESCRIPTION (( 'STEP AP214' ),
    '1' );
FILE_NAME ('2046567.stp',
    '2017-05-23T11:38:11',
    ( '' ),
    ( '' ),
    'SwSTEP 2.0',
    'SolidWorks 2016',
    '' );
FILE_SCHEMA (( 'AUTOMOTIVE_DESIGN' ));
ENDSEC;

DATA;
#1 = PRESENTATION_STYLE_ASSIGNMENT (( #29 ) ) ;
#2 = CLOSED_SHELL ( 'NONE', ( #60, #209, #198, #152, #133, #125 ) ) ;
#3 = ORIENTED_EDGE ( 'NONE', *, *, #5, .T. ) ;
#4 = SURFACE_STYLE_FILL_AREA ( #207 ) ;
#5 = EDGE_CURVE ( 'NONE', #8, #77, #41, .T. ) ;
#6 = DIRECTION ( 'NONE',  ( 1.000000000000000000, 0.0000000000000000000, 0.0000000000000000000 ) ) ;
#7 = VERTEX_POINT ( 'NONE', #117 ) ;
#8 = VERTEX_POINT ( 'NONE', #43 ) ;
#9 =( NAMED_UNIT ( * ) PLANE_ANGLE_UNIT ( ) SI_UNIT ( $, .RADIAN. ) );
#10 = SURFACE_STYLE_USAGE ( .BOTH. , #108 ) ;
#11 = ORIENTED_EDGE ( 'NONE', *, *, #111, .F. ) ;
#12 = ORIENTED_EDGE ( 'NONE', *, *, #33, .T. ) ;
#13 = DIRECTION ( 'NONE',  ( 0.0000000000000000000, 0.0000000000000000000, 1.000000000000000000 ) ) ;
#14 = ORIENTED_EDGE ( 'NONE', *, *, #178, .T. ) ;
#15 = CARTESIAN_POINT ( 'NONE',  ( 0.0000000000000000000, 0.0000000000000000000, -3000.000000000000000 ) ) ;
#16 = DIRECTION ( 'NONE',  ( 1.000000000000000000, 0.0000000000000000000, -0.0000000000000000000 ) ) ;
#17 = VERTEX_POINT ( 'NONE', #100 ) ;
#18 = CYLINDRICAL_SURFACE ( 'NONE', #162, 12.50000000000000000 ) ;
#19 = UNCERTAINTY_MEASURE_WITH_UNIT (LENGTH_MEASURE( 1.000000000000000100E-005 ), #107, 'distance_accuracy_value', 'NONE');
#20 = FACE_OUTER_BOUND ( 'NONE', #67, .T. ) ;
#21 = EDGE_LOOP ( 'NONE', ( #22, #116, #14, #83 ) ) ;
#22 = ORIENTED_EDGE ( 'NONE', *, *, #156, .F. ) ;
#23 = VERTEX_POINT ( 'NONE', #58 ) ;
#24 = DIRECTION ( 'NONE',  ( 0.0000000000000000000, 0.0000000000000000000, 1.000000000000000000 ) ) ;
#25 = DIRECTION ( 'NONE',  ( 0.0000000000000000000, 0.0000000000000000000, 1.000000000000000000 ) ) ;
#26 =( NAMED_UNIT ( * ) PLANE_ANGLE_UNIT ( ) SI_UNIT ( $, .RADIAN. ) );
#27 = VERTEX_POINT ( 'NONE', #62 ) ;
#28 = SURFACE_SIDE_STYLE ('',( #59 ) ) ;
#29 = SURFACE_STYLE_USAGE ( .BOTH. , #28 ) ;
#30 =( NAMED_UNIT ( * ) PLANE_ANGLE_UNIT ( ) SI_UNIT ( $, .RADIAN. ) );
#31 = EDGE_CURVE ( 'NONE', #77, #17, #197, .T. ) ;
#32 = DIRECTION ( 'NONE',  ( 1.000000000000000000, 0.0000000000000000000, 0.0000000000000000000 ) ) ;
#33 = EDGE_CURVE ( 'NONE', #23, #27, #70, .T. ) ;
#34 = VERTEX_POINT ( 'NONE', #46 ) ;
#35 = ORIENTED_EDGE ( 'NONE', *, *, #160, .T. ) ;
#36 = PRODUCT_DEFINITION ( 'UNKNOWN', '', #172, #212 ) ;
#37 = CARTESIAN_POINT ( 'NONE',  ( 0.0000000000000000000, 0.0000000000000000000, -3000.000000000000000 ) ) ;
#38 = DIRECTION ( 'NONE',  ( 1.000000000000000000, 0.0000000000000000000, 0.0000000000000000000 ) ) ;
#39 = DIRECTION ( 'NONE',  ( 0.0000000000000000000, 0.0000000000000000000, 1.000000000000000000 ) ) ;
#40 = VECTOR ( 'NONE', #13, 1000.000000000000000 ) ;
#41 = LINE ( 'NONE', #76, #187 ) ;
#42 = DIRECTION ( 'NONE',  ( 0.0000000000000000000, 0.0000000000000000000, 1.000000000000000000 ) ) ;
#43 = CARTESIAN_POINT ( 'NONE',  ( 12.50000000000000000, 0.0000000000000000000, -3000.000000000000000 ) ) ;
#44 = MANIFOLD_SOLID_BREP ( 'Rohr St', #2 ) ;
#45 = EDGE_LOOP ( 'NONE', ( #124, #35 ) ) ;
#46 = CARTESIAN_POINT ( 'NONE',  ( 11.30000000000000100, 0.0000000000000000000, -3000.000000000000000 ) ) ;
#47 = CARTESIAN_POINT ( 'NONE',  ( 11.30000000000000100, 0.0000000000000000000, -3000.000000000000000 ) ) ;
#48 = LINE ( 'NONE', #81, #87 ) ;
#49 = DIRECTION ( 'NONE',  ( 1.000000000000000000, 0.0000000000000000000, 0.0000000000000000000 ) ) ;
#50 = CARTESIAN_POINT ( 'NONE',  ( -12.50000000000000000, 1.530808498934191500E-015, -3000.000000000000000 ) ) ;
#51 = ORIENTED_EDGE ( 'NONE', *, *, #192, .T. ) ;
#52 = EDGE_CURVE ( 'NONE', #131, #17, #48, .T. ) ;
#53 = ORIENTED_EDGE ( 'NONE', *, *, #140, .F. ) ;
#54 = ORIENTED_EDGE ( 'NONE', *, *, #111, .T. ) ;
#55 = DIRECTION ( 'NONE',  ( 1.000000000000000000, 0.0000000000000000000, 0.0000000000000000000 ) ) ;
#56 = AXIS2_PLACEMENT_3D ( 'NONE', #127, #196, #168 ) ;
#57 = CARTESIAN_POINT ( 'NONE',  ( 0.0000000000000000000, 0.0000000000000000000, -3000.000000000000000 ) ) ;
#58 = CARTESIAN_POINT ( 'NONE',  ( 11.30000000000000100, 0.0000000000000000000, 0.0000000000000000000 ) ) ;
#59 = SURFACE_STYLE_FILL_AREA ( #137 ) ;
#60 = ADVANCED_FACE ( 'NONE', ( #179 ), #184, .F. ) ;
#61 = ORIENTED_EDGE ( 'NONE', *, *, #160, .F. ) ;
#62 = CARTESIAN_POINT ( 'NONE',  ( -11.30000000000000100, 1.383850883036509300E-015, 0.0000000000000000000 ) ) ;
#63 = CARTESIAN_POINT ( 'NONE',  ( -11.30000000000000100, 1.383850883036509300E-015, -3000.000000000000000 ) ) ;
#64 = CIRCLE ( 'NONE', #188, 11.30000000000000100 ) ;
#65 = FACE_OUTER_BOUND ( 'NONE', #75, .T. ) ;
#66 = CIRCLE ( 'NONE', #56, 11.30000000000000100 ) ;
#67 = EDGE_LOOP ( 'NONE', ( #120, #53, #101, #12 ) ) ;
#68 = AXIS2_PLACEMENT_3D ( 'NONE', #177, #73, #194 ) ;
#69 = CYLINDRICAL_SURFACE ( 'NONE', #104, 11.30000000000000100 ) ;
#70 = CIRCLE ( 'NONE', #93, 11.30000000000000100 ) ;
#71 = UNCERTAINTY_MEASURE_WITH_UNIT (LENGTH_MEASURE( 1.000000000000000100E-005 ), #129, 'distance_accuracy_value', 'NONE');
#72 = EDGE_LOOP ( 'NONE', ( #191, #202 ) ) ;
#73 = DIRECTION ( 'NONE',  ( 0.0000000000000000000, 0.0000000000000000000, 1.000000000000000000 ) ) ;
#74 = APPLICATION_CONTEXT ( 'automotive_design' ) ;
#75 = EDGE_LOOP ( 'NONE', ( #54, #94, #206, #103 ) ) ;
#76 = CARTESIAN_POINT ( 'NONE',  ( 12.50000000000000000, 0.0000000000000000000, -3000.000000000000000 ) ) ;
#77 = VERTEX_POINT ( 'NONE', #146 ) ;
#78 = DIRECTION ( 'NONE',  ( 0.0000000000000000000, 0.0000000000000000000, 1.000000000000000000 ) ) ;
#79 = AXIS2_PLACEMENT_3D ( 'NONE', #171, #138, #16 ) ;
#80 = LINE ( 'NONE', #47, #167 ) ;
#81 = CARTESIAN_POINT ( 'NONE',  ( -12.50000000000000000, 1.530808498934191500E-015, -3000.000000000000000 ) ) ;
#82 = ORIENTED_EDGE ( 'NONE', *, *, #192, .F. ) ;
#83 = ORIENTED_EDGE ( 'NONE', *, *, #150, .F. ) ;
#84 = ORIENTED_EDGE ( 'NONE', *, *, #178, .F. ) ;
#85 = PRESENTATION_STYLE_ASSIGNMENT (( #10 ) ) ;
#86 = DIRECTION ( 'NONE',  ( 1.000000000000000000, 0.0000000000000000000, 0.0000000000000000000 ) ) ;
#87 = VECTOR ( 'NONE', #99, 1000.000000000000000 ) ;
#88 = ORIENTED_EDGE ( 'NONE', *, *, #33, .F. ) ;
#89 = CARTESIAN_POINT ( 'NONE',  ( 0.0000000000000000000, 0.0000000000000000000, -3000.000000000000000 ) ) ;
#90 =( GEOMETRIC_REPRESENTATION_CONTEXT ( 3 ) GLOBAL_UNCERTAINTY_ASSIGNED_CONTEXT ( ( #19 ) ) GLOBAL_UNIT_ASSIGNED_CONTEXT ( ( #107, #9, #128 ) ) REPRESENTATION_CONTEXT ( 'NONE', 'WORKASPACE' ) );
#91 = COLOUR_RGB ( '',0.7529411764705882200, 0.7529411764705882200, 0.7529411764705882200 ) ;
#92 = DIRECTION ( 'NONE',  ( 1.000000000000000000, 0.0000000000000000000, 0.0000000000000000000 ) ) ;
#93 = AXIS2_PLACEMENT_3D ( 'NONE', #151, #115, #169 ) ;
#94 = ORIENTED_EDGE ( 'NONE', *, *, #52, .T. ) ;
#95 = DIRECTION ( 'NONE',  ( 1.000000000000000000, 0.0000000000000000000, 0.0000000000000000000 ) ) ;
#96 = ADVANCED_BREP_SHAPE_REPRESENTATION ( '2046567', ( #44, #102 ), #90 ) ;
#97 = AXIS2_PLACEMENT_3D ( 'NONE', #89, #25, #147 ) ;
#98 = EDGE_LOOP ( 'NONE', ( #88, #84 ) ) ;
#99 = DIRECTION ( 'NONE',  ( 0.0000000000000000000, 0.0000000000000000000, 1.000000000000000000 ) ) ;
#100 = CARTESIAN_POINT ( 'NONE',  ( -12.50000000000000000, 1.530808498934191500E-015, 0.0000000000000000000 ) ) ;
#101 = ORIENTED_EDGE ( 'NONE', *, *, #150, .T. ) ;
#102 = AXIS2_PLACEMENT_3D ( 'NONE', #166, #181, #92 ) ;
#103 = ORIENTED_EDGE ( 'NONE', *, *, #5, .F. ) ;
#104 = AXIS2_PLACEMENT_3D ( 'NONE', #37, #136, #86 ) ;
#105 = AXIS2_PLACEMENT_3D ( 'NONE', #213, #157, #32 ) ;
#106 = EDGE_LOOP ( 'NONE', ( #11, #82 ) ) ;
#107 =( LENGTH_UNIT ( ) NAMED_UNIT ( * ) SI_UNIT ( .MILLI., .METRE. ) );
#108 = SURFACE_SIDE_STYLE ('',( #4 ) ) ;
#109 = FACE_BOUND ( 'NONE', #72, .T. ) ;
#110 = APPLICATION_CONTEXT ( 'automotive_design' ) ;
#111 = EDGE_CURVE ( 'NONE', #8, #131, #173, .T. ) ;
#112 = PRESENTATION_LAYER_ASSIGNMENT (  '', '', ( #199 ) ) ;
#113 = CIRCLE ( 'NONE', #97, 12.50000000000000000 ) ;
#114 = MECHANICAL_DESIGN_GEOMETRIC_PRESENTATION_REPRESENTATION (  '', ( #123 ), #175 ) ;
#115 = DIRECTION ( 'NONE',  ( 0.0000000000000000000, 0.0000000000000000000, 1.000000000000000000 ) ) ;
#116 = ORIENTED_EDGE ( 'NONE', *, *, #142, .T. ) ;
#117 = CARTESIAN_POINT ( 'NONE',  ( -11.30000000000000100, 1.383850883036509300E-015, -3000.000000000000000 ) ) ;
#118 = DIRECTION ( 'NONE',  ( 0.0000000000000000000, 0.0000000000000000000, 1.000000000000000000 ) ) ;
#119 = COLOUR_RGB ( '',0.7529411764705882200, 0.7529411764705882200, 0.7529411764705882200 ) ;
#120 = ORIENTED_EDGE ( 'NONE', *, *, #142, .F. ) ;
#121 = EDGE_LOOP ( 'NONE', ( #204, #51, #3, #61 ) ) ;
#122 = AXIS2_PLACEMENT_3D ( 'NONE', #57, #165, #6 ) ;
#123 = STYLED_ITEM ( 'NONE', ( #1 ), #44 ) ;
#124 = ORIENTED_EDGE ( 'NONE', *, *, #31, .T. ) ;
#125 = ADVANCED_FACE ( 'NONE', ( #20 ), #69, .F. ) ;
#126 = CARTESIAN_POINT ( 'NONE',  ( 0.0000000000000000000, 0.0000000000000000000, -3000.000000000000000 ) ) ;
#127 = CARTESIAN_POINT ( 'NONE',  ( 0.0000000000000000000, 0.0000000000000000000, 0.0000000000000000000 ) ) ;
#128 =( NAMED_UNIT ( * ) SI_UNIT ( $, .STERADIAN. ) SOLID_ANGLE_UNIT ( ) );
#129 =( LENGTH_UNIT ( ) NAMED_UNIT ( * ) SI_UNIT ( .MILLI., .METRE. ) );
#130 = AXIS2_PLACEMENT_3D ( 'NONE', #210, #118, #95 ) ;
#131 = VERTEX_POINT ( 'NONE', #50 ) ;
#132 = DIRECTION ( 'NONE',  ( 0.0000000000000000000, 0.0000000000000000000, 1.000000000000000000 ) ) ;
#133 = ADVANCED_FACE ( 'NONE', ( #201, #163 ), #214, .T. ) ;
#134 =( NAMED_UNIT ( * ) SI_UNIT ( $, .STERADIAN. ) SOLID_ANGLE_UNIT ( ) );
#135 = LINE ( 'NONE', #63, #40 ) ;
#136 = DIRECTION ( 'NONE',  ( 0.0000000000000000000, 0.0000000000000000000, 1.000000000000000000 ) ) ;
#137 = FILL_AREA_STYLE ('',( #182 ) ) ;
#138 = DIRECTION ( 'NONE',  ( 0.0000000000000000000, 0.0000000000000000000, 1.000000000000000000 ) ) ;
#139 = MECHANICAL_DESIGN_GEOMETRIC_PRESENTATION_REPRESENTATION (  '', ( #199 ), #203 ) ;
#140 = EDGE_CURVE ( 'NONE', #34, #7, #211, .T. ) ;
#141 = PRODUCT_RELATED_PRODUCT_CATEGORY ( 'part', '', ( #193 ) ) ;
#142 = EDGE_CURVE ( 'NONE', #7, #27, #135, .T. ) ;
#143 = AXIS2_PLACEMENT_3D ( 'NONE', #154, #164, #176 ) ;
#144 = PRESENTATION_LAYER_ASSIGNMENT (  '', '', ( #123 ) ) ;
#145 = PLANE ( 'NONE',  #143 ) ;
#146 = CARTESIAN_POINT ( 'NONE',  ( 12.50000000000000000, 0.0000000000000000000, 0.0000000000000000000 ) ) ;
#147 = DIRECTION ( 'NONE',  ( 1.000000000000000000, 0.0000000000000000000, 0.0000000000000000000 ) ) ;
#148 = APPLICATION_PROTOCOL_DEFINITION ( 'draft international standard', 'automotive_design', 1998, #74 ) ;
#149 =( NAMED_UNIT ( * ) SI_UNIT ( $, .STERADIAN. ) SOLID_ANGLE_UNIT ( ) );
#150 = EDGE_CURVE ( 'NONE', #34, #23, #80, .T. ) ;
#151 = CARTESIAN_POINT ( 'NONE',  ( 0.0000000000000000000, 0.0000000000000000000, 0.0000000000000000000 ) ) ;
#152 = ADVANCED_FACE ( 'NONE', ( #109, #205 ), #145, .F. ) ;
#153 = CIRCLE ( 'NONE', #68, 12.50000000000000000 ) ;
#154 = CARTESIAN_POINT ( 'NONE',  ( 0.0000000000000000000, 0.0000000000000000000, -3000.000000000000000 ) ) ;
#155 =( LENGTH_UNIT ( ) NAMED_UNIT ( * ) SI_UNIT ( .MILLI., .METRE. ) );
#156 = EDGE_CURVE ( 'NONE', #7, #34, #64, .T. ) ;
#157 = DIRECTION ( 'NONE',  ( 0.0000000000000000000, 0.0000000000000000000, 1.000000000000000000 ) ) ;
#158 = AXIS2_PLACEMENT_3D ( 'NONE', #15, #132, #186 ) ;
#159 = FACE_OUTER_BOUND ( 'NONE', #121, .T. ) ;
#160 = EDGE_CURVE ( 'NONE', #17, #77, #153, .T. ) ;
#161 = PRODUCT_DEFINITION_SHAPE ( 'NONE', 'NONE',  #36 ) ;
#162 = AXIS2_PLACEMENT_3D ( 'NONE', #180, #39, #55 ) ;
#163 = FACE_OUTER_BOUND ( 'NONE', #45, .T. ) ;
#164 = DIRECTION ( 'NONE',  ( 0.0000000000000000000, 0.0000000000000000000, 1.000000000000000000 ) ) ;
#165 = DIRECTION ( 'NONE',  ( 0.0000000000000000000, 0.0000000000000000000, 1.000000000000000000 ) ) ;
#166 = CARTESIAN_POINT ( 'NONE',  ( 0.0000000000000000000, 0.0000000000000000000, 0.0000000000000000000 ) ) ;
#167 = VECTOR ( 'NONE', #78, 1000.000000000000000 ) ;
#168 = DIRECTION ( 'NONE',  ( 1.000000000000000000, 0.0000000000000000000, 0.0000000000000000000 ) ) ;
#169 = DIRECTION ( 'NONE',  ( 1.000000000000000000, 0.0000000000000000000, 0.0000000000000000000 ) ) ;
#170 = AXIS2_PLACEMENT_3D ( 'NONE', #183, #185, #49 ) ;
#171 = CARTESIAN_POINT ( 'NONE',  ( 0.0000000000000000000, 0.0000000000000000000, 0.0000000000000000000 ) ) ;
#172 = PRODUCT_DEFINITION_FORMATION_WITH_SPECIFIED_SOURCE ( 'ANY', '', #193, .NOT_KNOWN. ) ;
#173 = CIRCLE ( 'NONE', #105, 12.50000000000000000 ) ;
#174 = SHAPE_DEFINITION_REPRESENTATION ( #161, #96 ) ;
#175 =( GEOMETRIC_REPRESENTATION_CONTEXT ( 3 ) GLOBAL_UNCERTAINTY_ASSIGNED_CONTEXT ( ( #190 ) ) GLOBAL_UNIT_ASSIGNED_CONTEXT ( ( #155, #30, #134 ) ) REPRESENTATION_CONTEXT ( 'NONE', 'WORKASPACE' ) );
#176 = DIRECTION ( 'NONE',  ( 1.000000000000000000, 0.0000000000000000000, -0.0000000000000000000 ) ) ;
#177 = CARTESIAN_POINT ( 'NONE',  ( 0.0000000000000000000, 0.0000000000000000000, 0.0000000000000000000 ) ) ;
#178 = EDGE_CURVE ( 'NONE', #27, #23, #66, .T. ) ;
#179 = FACE_OUTER_BOUND ( 'NONE', #21, .T. ) ;
#180 = CARTESIAN_POINT ( 'NONE',  ( 0.0000000000000000000, 0.0000000000000000000, -3000.000000000000000 ) ) ;
#181 = DIRECTION ( 'NONE',  ( 0.0000000000000000000, 0.0000000000000000000, 1.000000000000000000 ) ) ;
#182 = FILL_AREA_STYLE_COLOUR ( '', #119 ) ;
#183 = CARTESIAN_POINT ( 'NONE',  ( 0.0000000000000000000, 0.0000000000000000000, -3000.000000000000000 ) ) ;
#184 = CYLINDRICAL_SURFACE ( 'NONE', #158, 11.30000000000000100 ) ;
#185 = DIRECTION ( 'NONE',  ( 0.0000000000000000000, 0.0000000000000000000, 1.000000000000000000 ) ) ;
#186 = DIRECTION ( 'NONE',  ( 1.000000000000000000, 0.0000000000000000000, 0.0000000000000000000 ) ) ;
#187 = VECTOR ( 'NONE', #42, 1000.000000000000000 ) ;
#188 = AXIS2_PLACEMENT_3D ( 'NONE', #126, #24, #38 ) ;
#189 = CYLINDRICAL_SURFACE ( 'NONE', #122, 12.50000000000000000 ) ;
#190 = UNCERTAINTY_MEASURE_WITH_UNIT (LENGTH_MEASURE( 1.000000000000000100E-005 ), #155, 'distance_accuracy_value', 'NONE');
#191 = ORIENTED_EDGE ( 'NONE', *, *, #140, .T. ) ;
#192 = EDGE_CURVE ( 'NONE', #131, #8, #113, .T. ) ;
#193 = PRODUCT ( '2046567', '2046567', '', ( #208 ) ) ;
#194 = DIRECTION ( 'NONE',  ( 1.000000000000000000, 0.0000000000000000000, 0.0000000000000000000 ) ) ;
#195 = FILL_AREA_STYLE_COLOUR ( '', #91 ) ;
#196 = DIRECTION ( 'NONE',  ( 0.0000000000000000000, 0.0000000000000000000, 1.000000000000000000 ) ) ;
#197 = CIRCLE ( 'NONE', #130, 12.50000000000000000 ) ;
#198 = ADVANCED_FACE ( 'NONE', ( #159 ), #189, .T. ) ;
#199 = STYLED_ITEM ( 'NONE', ( #85 ), #96 ) ;
#200 = APPLICATION_PROTOCOL_DEFINITION ( 'draft international standard', 'automotive_design', 1998, #110 ) ;
#201 = FACE_BOUND ( 'NONE', #98, .T. ) ;
#202 = ORIENTED_EDGE ( 'NONE', *, *, #156, .T. ) ;
#203 =( GEOMETRIC_REPRESENTATION_CONTEXT ( 3 ) GLOBAL_UNCERTAINTY_ASSIGNED_CONTEXT ( ( #71 ) ) GLOBAL_UNIT_ASSIGNED_CONTEXT ( ( #129, #26, #149 ) ) REPRESENTATION_CONTEXT ( 'NONE', 'WORKASPACE' ) );
#204 = ORIENTED_EDGE ( 'NONE', *, *, #52, .F. ) ;
#205 = FACE_OUTER_BOUND ( 'NONE', #106, .T. ) ;
#206 = ORIENTED_EDGE ( 'NONE', *, *, #31, .F. ) ;
#207 = FILL_AREA_STYLE ('',( #195 ) ) ;
#208 = PRODUCT_CONTEXT ( 'NONE', #74, 'mechanical' ) ;
#209 = ADVANCED_FACE ( 'NONE', ( #65 ), #18, .T. ) ;
#210 = CARTESIAN_POINT ( 'NONE',  ( 0.0000000000000000000, 0.0000000000000000000, 0.0000000000000000000 ) ) ;
#211 = CIRCLE ( 'NONE', #170, 11.30000000000000100 ) ;
#212 = PRODUCT_DEFINITION_CONTEXT ( 'detailed design', #110, 'design' ) ;
#213 = CARTESIAN_POINT ( 'NONE',  ( 0.0000000000000000000, 0.0000000000000000000, -3000.000000000000000 ) ) ;
#214 = PLANE ( 'NONE',  #79 ) ;
ENDSEC;
END-ISO-10303-21;
