ISO-10303-21;
HEADER;
FILE_DESCRIPTION (( 'STEP AP214' ),
    '1' );
FILE_NAME ('2046540.stp',
    '2022-03-22T14:13:26',
    ( '' ),
    ( '' ),
    'SwSTEP 2.0',
    'SolidWorks 2020',
    '' );
FILE_SCHEMA (( 'AUTOMOTIVE_DESIGN' ));
ENDSEC;

DATA;
#1 = ADVANCED_FACE ( 'NONE', ( #11, #222 ), #107, .F. ) ;
#2 = CARTESIAN_POINT ( 'NONE',  ( 0.000000000000000000, 0.000000000000000000, -0.3000000000010771828 ) ) ;
#3 =( GEOMETRIC_REPRESENTATION_CONTEXT ( 3 ) GLOBAL_UNCERTAINTY_ASSIGNED_CONTEXT ( ( #180 ) ) GLOBAL_UNIT_ASSIGNED_CONTEXT ( ( #103, #44, #162 ) ) REPRESENTATION_CONTEXT ( 'NONE', 'WORKASPACE' ) );
#4 = AXIS2_PLACEMENT_3D ( 'NONE', #219, #55, #124 ) ;
#5 = ORIENTED_EDGE ( 'NONE', *, *, #10, .T. ) ;
#6 = COLOUR_RGB ( '',0.7529411764705882248, 0.7529411764705882248, 0.7529411764705882248 ) ;
#7 = FACE_BOUND ( 'NONE', #141, .T. ) ;
#8 = ORIENTED_EDGE ( 'NONE', *, *, #214, .F. ) ;
#9 = ORIENTED_EDGE ( 'NONE', *, *, #56, .F. ) ;
#10 = EDGE_CURVE ( 'NONE', #212, #212, #138, .T. ) ;
#11 = FACE_OUTER_BOUND ( 'NONE', #203, .T. ) ;
#12 = CONICAL_SURFACE ( 'NONE', #201, 29.89999999999914948, 0.7853981633971939269 ) ;
#13 = FACE_BOUND ( 'NONE', #39, .T. ) ;
#14 = FACE_OUTER_BOUND ( 'NONE', #204, .T. ) ;
#15 = FILL_AREA_STYLE_COLOUR ( '', #227 ) ;
#16 = CLOSED_SHELL ( 'NONE', ( #195, #217, #91, #1, #161, #142, #152, #147 ) ) ;
#17 = CARTESIAN_POINT ( 'NONE',  ( 0.000000000000000000, 0.000000000000000000, -3000.000000000000000 ) ) ;
#18 = PRODUCT_DEFINITION_CONTEXT ( 'detailed design', #27, 'design' ) ;
#19 = VERTEX_POINT ( 'NONE', #120 ) ;
#20 = STYLED_ITEM ( 'NONE', ( #220 ), #121 ) ;
#21 = DIRECTION ( 'NONE',  ( 0.000000000000000000, 0.000000000000000000, 1.000000000000000000 ) ) ;
#22 = CARTESIAN_POINT ( 'NONE',  ( 0.000000000000000000, 0.000000000000000000, -3000.000000000000000 ) ) ;
#23 = CIRCLE ( 'NONE', #158, 30.60000000000062670 ) ;
#24 = SURFACE_STYLE_FILL_AREA ( #182 ) ;
#25 = EDGE_LOOP ( 'NONE', ( #129 ) ) ;
#26 = FILL_AREA_STYLE_COLOUR ( '', #216 ) ;
#27 = APPLICATION_CONTEXT ( 'automotive_design' ) ;
#28 = FACE_BOUND ( 'NONE', #151, .T. ) ;
#29 =( NAMED_UNIT ( * ) PLANE_ANGLE_UNIT ( ) SI_UNIT ( $, .RADIAN. ) );
#30 = DIRECTION ( 'NONE',  ( 0.000000000000000000, 0.000000000000000000, 1.000000000000000000 ) ) ;
#31 = FACE_OUTER_BOUND ( 'NONE', #221, .T. ) ;
#32 = DIRECTION ( 'NONE',  ( 1.000000000000000000, 0.000000000000000000, 0.000000000000000000 ) ) ;
#33 = VERTEX_POINT ( 'NONE', #191 ) ;
#34 = CONICAL_SURFACE ( 'NONE', #93, 30.59999999999973852, 0.7853981633975254395 ) ;
#35 = ORIENTED_EDGE ( 'NONE', *, *, #193, .F. ) ;
#36 = CIRCLE ( 'NONE', #77, 29.60000000000000142 ) ;
#37 = ORIENTED_EDGE ( 'NONE', *, *, #197, .T. ) ;
#38 = CARTESIAN_POINT ( 'NONE',  ( 0.000000000000000000, 0.000000000000000000, 0.000000000000000000 ) ) ;
#39 = EDGE_LOOP ( 'NONE', ( #96 ) ) ;
#40 = FILL_AREA_STYLE ('',( #127 ) ) ;
#41 = DIRECTION ( 'NONE',  ( -0.000000000000000000, -0.000000000000000000, -1.000000000000000000 ) ) ;
#42 = ORIENTED_EDGE ( 'NONE', *, *, #118, .F. ) ;
#43 = DIRECTION ( 'NONE',  ( 1.000000000000000000, 0.000000000000000000, 0.000000000000000000 ) ) ;
#44 =( NAMED_UNIT ( * ) PLANE_ANGLE_UNIT ( ) SI_UNIT ( $, .RADIAN. ) );
#45 = DIRECTION ( 'NONE',  ( 1.000000000000000000, 0.000000000000000000, 0.000000000000000000 ) ) ;
#46 = FACE_OUTER_BOUND ( 'NONE', #111, .T. ) ;
#47 = SURFACE_STYLE_FILL_AREA ( #157 ) ;
#48 = CARTESIAN_POINT ( 'NONE',  ( 0.000000000000000000, 0.000000000000000000, 0.000000000000000000 ) ) ;
#49 = VERTEX_POINT ( 'NONE', #119 ) ;
#50 = AXIS2_PLACEMENT_3D ( 'NONE', #100, #81, #156 ) ;
#51 = DIRECTION ( 'NONE',  ( 1.000000000000000000, 0.000000000000000000, 0.000000000000000000 ) ) ;
#52 = UNCERTAINTY_MEASURE_WITH_UNIT (LENGTH_MEASURE( 1.000000000000000082E-05 ), #114, 'distance_accuracy_value', 'NONE');
#53 = AXIS2_PLACEMENT_3D ( 'NONE', #76, #148, #199 ) ;
#54 = ORIENTED_EDGE ( 'NONE', *, *, #197, .F. ) ;
#55 = DIRECTION ( 'NONE',  ( 0.000000000000000000, 0.000000000000000000, 1.000000000000000000 ) ) ;
#56 = EDGE_CURVE ( 'NONE', #49, #49, #196, .T. ) ;
#57 = PRESENTATION_LAYER_ASSIGNMENT (  '', '', ( #126 ) ) ;
#58 = CARTESIAN_POINT ( 'NONE',  ( 0.000000000000000000, 0.000000000000000000, -2999.700000000000728 ) ) ;
#59 = DIRECTION ( 'NONE',  ( 0.000000000000000000, 0.000000000000000000, 1.000000000000000000 ) ) ;
#60 = PRODUCT_CONTEXT ( 'NONE', #149, 'mechanical' ) ;
#61 = DIRECTION ( 'NONE',  ( 1.000000000000000000, 0.000000000000000000, 0.000000000000000000 ) ) ;
#62 = CARTESIAN_POINT ( 'NONE',  ( 31.50000000000000000, 0.000000000000000000, -0.9000000000001229239 ) ) ;
#63 = AXIS2_PLACEMENT_3D ( 'NONE', #38, #108, #184 ) ;
#64 = DIRECTION ( 'NONE',  ( 1.000000000000000000, 0.000000000000000000, -0.000000000000000000 ) ) ;
#65 = PRESENTATION_STYLE_ASSIGNMENT (( #228 ) ) ;
#66 = PRESENTATION_STYLE_ASSIGNMENT (( #102 ) ) ;
#67 = EDGE_CURVE ( 'NONE', #19, #19, #36, .T. ) ;
#68 = DIRECTION ( 'NONE',  ( 0.000000000000000000, 0.000000000000000000, 1.000000000000000000 ) ) ;
#69 = VERTEX_POINT ( 'NONE', #189 ) ;
#70 = ORIENTED_EDGE ( 'NONE', *, *, #214, .T. ) ;
#71 = AXIS2_PLACEMENT_3D ( 'NONE', #225, #84, #61 ) ;
#72 = ORIENTED_EDGE ( 'NONE', *, *, #56, .T. ) ;
#73 =( GEOMETRIC_REPRESENTATION_CONTEXT ( 3 ) GLOBAL_UNCERTAINTY_ASSIGNED_CONTEXT ( ( #160 ) ) GLOBAL_UNIT_ASSIGNED_CONTEXT ( ( #190, #155, #187 ) ) REPRESENTATION_CONTEXT ( 'NONE', 'WORKASPACE' ) );
#74 = DIRECTION ( 'NONE',  ( 1.000000000000000000, 0.000000000000000000, 0.000000000000000000 ) ) ;
#75 = SURFACE_STYLE_USAGE ( .BOTH. , #95 ) ;
#76 = CARTESIAN_POINT ( 'NONE',  ( 0.000000000000000000, 0.000000000000000000, -2999.100000000000364 ) ) ;
#77 = AXIS2_PLACEMENT_3D ( 'NONE', #58, #41, #128 ) ;
#78 = ORIENTED_EDGE ( 'NONE', *, *, #67, .T. ) ;
#79 = DIRECTION ( 'NONE',  ( -0.000000000000000000, -0.000000000000000000, -1.000000000000000000 ) ) ;
#80 = APPLICATION_PROTOCOL_DEFINITION ( 'draft international standard', 'automotive_design', 1998, #27 ) ;
#81 = DIRECTION ( 'NONE',  ( 0.000000000000000000, 0.000000000000000000, -1.000000000000000000 ) ) ;
#82 = APPLICATION_PROTOCOL_DEFINITION ( 'draft international standard', 'automotive_design', 1998, #149 ) ;
#83 = CIRCLE ( 'NONE', #63, 30.59999999999973852 ) ;
#84 = DIRECTION ( 'NONE',  ( 0.000000000000000000, 0.000000000000000000, 1.000000000000000000 ) ) ;
#85 = PRODUCT_DEFINITION_FORMATION_WITH_SPECIFIED_SOURCE ( 'ANY', '', #188, .NOT_KNOWN. ) ;
#86 = EDGE_CURVE ( 'NONE', #69, #69, #23, .T. ) ;
#87 =( NAMED_UNIT ( * ) PLANE_ANGLE_UNIT ( ) SI_UNIT ( $, .RADIAN. ) );
#88 = EDGE_LOOP ( 'NONE', ( #105 ) ) ;
#89 = AXIS2_PLACEMENT_3D ( 'NONE', #17, #68, #64 ) ;
#90 = ORIENTED_EDGE ( 'NONE', *, *, #193, .T. ) ;
#91 = ADVANCED_FACE ( 'NONE', ( #7, #146 ), #110, .T. ) ;
#92 = EDGE_LOOP ( 'NONE', ( #8 ) ) ;
#93 = AXIS2_PLACEMENT_3D ( 'NONE', #168, #209, #185 ) ;
#94 = AXIS2_PLACEMENT_3D ( 'NONE', #97, #202, #45 ) ;
#95 = SURFACE_SIDE_STYLE ('',( #24 ) ) ;
#96 = ORIENTED_EDGE ( 'NONE', *, *, #67, .F. ) ;
#97 = CARTESIAN_POINT ( 'NONE',  ( 0.000000000000000000, 0.000000000000000000, 0.000000000000000000 ) ) ;
#98 = EDGE_LOOP ( 'NONE', ( #165 ) ) ;
#99 = CARTESIAN_POINT ( 'NONE',  ( 0.000000000000000000, 0.000000000000000000, -3000.000000000000000 ) ) ;
#100 = CARTESIAN_POINT ( 'NONE',  ( 0.000000000000000000, 0.000000000000000000, -0.9000000000001229239 ) ) ;
#101 = SURFACE_STYLE_FILL_AREA ( #40 ) ;
#102 = SURFACE_STYLE_USAGE ( .BOTH. , #139 ) ;
#103 =( LENGTH_UNIT ( ) NAMED_UNIT ( * ) SI_UNIT ( .MILLI., .METRE. ) );
#104 = VERTEX_POINT ( 'NONE', #62 ) ;
#105 = ORIENTED_EDGE ( 'NONE', *, *, #86, .F. ) ;
#106 = AXIS2_PLACEMENT_3D ( 'NONE', #136, #132, #207 ) ;
#107 = CYLINDRICAL_SURFACE ( 'NONE', #145, 29.60000000000000142 ) ;
#108 = DIRECTION ( 'NONE',  ( 0.000000000000000000, 0.000000000000000000, 1.000000000000000000 ) ) ;
#109 = EDGE_LOOP ( 'NONE', ( #70 ) ) ;
#110 = PLANE ( 'NONE',  #4 ) ;
#111 = EDGE_LOOP ( 'NONE', ( #5 ) ) ;
#112 =( GEOMETRIC_REPRESENTATION_CONTEXT ( 3 ) GLOBAL_UNCERTAINTY_ASSIGNED_CONTEXT ( ( #52 ) ) GLOBAL_UNIT_ASSIGNED_CONTEXT ( ( #114, #87, #229 ) ) REPRESENTATION_CONTEXT ( 'NONE', 'WORKASPACE' ) );
#113 = DIRECTION ( 'NONE',  ( -0.000000000000000000, -0.000000000000000000, 1.000000000000000000 ) ) ;
#114 =( LENGTH_UNIT ( ) NAMED_UNIT ( * ) SI_UNIT ( .MILLI., .METRE. ) );
#115 = FACE_OUTER_BOUND ( 'NONE', #125, .T. ) ;
#116 = VERTEX_POINT ( 'NONE', #215 ) ;
#117 = DIRECTION ( 'NONE',  ( -0.000000000000000000, -0.000000000000000000, -1.000000000000000000 ) ) ;
#118 = EDGE_CURVE ( 'NONE', #116, #116, #83, .T. ) ;
#119 = CARTESIAN_POINT ( 'NONE',  ( 29.89999999999914948, 0.000000000000000000, -3000.000000000000000 ) ) ;
#120 = CARTESIAN_POINT ( 'NONE',  ( 29.60000000000000142, 0.000000000000000000, -2999.700000000000728 ) ) ;
#121 = MANIFOLD_SOLID_BREP ( 'Chamfer1', #16 ) ;
#122 = MECHANICAL_DESIGN_GEOMETRIC_PRESENTATION_REPRESENTATION (  '', ( #186 ), #73 ) ;
#123 = EDGE_LOOP ( 'NONE', ( #183 ) ) ;
#124 = DIRECTION ( 'NONE',  ( 1.000000000000000000, 0.000000000000000000, -0.000000000000000000 ) ) ;
#125 = EDGE_LOOP ( 'NONE', ( #90 ) ) ;
#126 = STYLED_ITEM ( 'NONE', ( #66 ), #195 ) ;
#127 = FILL_AREA_STYLE_COLOUR ( '', #6 ) ;
#128 = DIRECTION ( 'NONE',  ( 1.000000000000000000, 0.000000000000000000, 0.000000000000000000 ) ) ;
#129 = ORIENTED_EDGE ( 'NONE', *, *, #118, .T. ) ;
#130 = FACE_OUTER_BOUND ( 'NONE', #123, .T. ) ;
#131 = PRODUCT_RELATED_PRODUCT_CATEGORY ( 'part', '', ( #188 ) ) ;
#132 = DIRECTION ( 'NONE',  ( 0.000000000000000000, 0.000000000000000000, 1.000000000000000000 ) ) ;
#133 = PRESENTATION_LAYER_ASSIGNMENT (  '', '', ( #186 ) ) ;
#134 = MECHANICAL_DESIGN_GEOMETRIC_PRESENTATION_REPRESENTATION (  '', ( #20 ), #150 ) ;
#135 =( LENGTH_UNIT ( ) NAMED_UNIT ( * ) SI_UNIT ( .MILLI., .METRE. ) );
#136 = CARTESIAN_POINT ( 'NONE',  ( 0.000000000000000000, 0.000000000000000000, -3000.000000000000000 ) ) ;
#137 = AXIS2_PLACEMENT_3D ( 'NONE', #2, #30, #32 ) ;
#138 = CIRCLE ( 'NONE', #53, 31.50000000000000000 ) ;
#139 = SURFACE_SIDE_STYLE ('',( #47 ) ) ;
#140 = PRESENTATION_LAYER_ASSIGNMENT (  '', '', ( #20 ) ) ;
#141 = EDGE_LOOP ( 'NONE', ( #37 ) ) ;
#142 = ADVANCED_FACE ( 'NONE', ( #14, #28 ), #34, .T. ) ;
#143 = UNCERTAINTY_MEASURE_WITH_UNIT (LENGTH_MEASURE( 1.000000000000000082E-05 ), #135, 'distance_accuracy_value', 'NONE');
#144 = DIRECTION ( 'NONE',  ( 1.000000000000000000, 0.000000000000000000, 0.000000000000000000 ) ) ;
#145 = AXIS2_PLACEMENT_3D ( 'NONE', #169, #59, #200 ) ;
#146 = FACE_OUTER_BOUND ( 'NONE', #25, .T. ) ;
#147 = ADVANCED_FACE ( 'NONE', ( #31, #175 ), #171, .F. ) ;
#148 = DIRECTION ( 'NONE',  ( -0.000000000000000000, -0.000000000000000000, 1.000000000000000000 ) ) ;
#149 = APPLICATION_CONTEXT ( 'automotive_design' ) ;
#150 =( GEOMETRIC_REPRESENTATION_CONTEXT ( 3 ) GLOBAL_UNCERTAINTY_ASSIGNED_CONTEXT ( ( #143 ) ) GLOBAL_UNIT_ASSIGNED_CONTEXT ( ( #135, #29, #159 ) ) REPRESENTATION_CONTEXT ( 'NONE', 'WORKASPACE' ) );
#151 = EDGE_LOOP ( 'NONE', ( #42 ) ) ;
#152 = ADVANCED_FACE ( 'NONE', ( #13, #173 ), #12, .F. ) ;
#153 = DIRECTION ( 'NONE',  ( -1.000000000000000000, 0.000000000000000000, 0.000000000000000000 ) ) ;
#154 = FACE_OUTER_BOUND ( 'NONE', #98, .T. ) ;
#155 =( NAMED_UNIT ( * ) PLANE_ANGLE_UNIT ( ) SI_UNIT ( $, .RADIAN. ) );
#156 = DIRECTION ( 'NONE',  ( 1.000000000000000000, 0.000000000000000000, 0.000000000000000000 ) ) ;
#157 = FILL_AREA_STYLE ('',( #15 ) ) ;
#158 = AXIS2_PLACEMENT_3D ( 'NONE', #22, #166, #74 ) ;
#159 =( NAMED_UNIT ( * ) SI_UNIT ( $, .STERADIAN. ) SOLID_ANGLE_UNIT ( ) );
#160 = UNCERTAINTY_MEASURE_WITH_UNIT (LENGTH_MEASURE( 1.000000000000000082E-05 ), #190, 'distance_accuracy_value', 'NONE');
#161 = ADVANCED_FACE ( 'NONE', ( #223, #130 ), #218, .T. ) ;
#162 =( NAMED_UNIT ( * ) SI_UNIT ( $, .STERADIAN. ) SOLID_ANGLE_UNIT ( ) );
#163 = AXIS2_PLACEMENT_3D ( 'NONE', #181, #21, #144 ) ;
#164 = AXIS2_PLACEMENT_3D ( 'NONE', #48, #117, #51 ) ;
#165 = ORIENTED_EDGE ( 'NONE', *, *, #86, .T. ) ;
#166 = DIRECTION ( 'NONE',  ( -0.000000000000000000, -0.000000000000000000, -1.000000000000000000 ) ) ;
#167 = CIRCLE ( 'NONE', #50, 31.50000000000000000 ) ;
#168 = CARTESIAN_POINT ( 'NONE',  ( 0.000000000000000000, 0.000000000000000000, 0.000000000000000000 ) ) ;
#169 = CARTESIAN_POINT ( 'NONE',  ( 0.000000000000000000, 0.000000000000000000, -3000.000000000000000 ) ) ;
#170 = EDGE_LOOP ( 'NONE', ( #72 ) ) ;
#171 = CONICAL_SURFACE ( 'NONE', #71, 29.60000000000000142, 0.7853981633971939269 ) ;
#172 = PRODUCT_DEFINITION ( 'UNKNOWN', '', #85, #18 ) ;
#173 = FACE_OUTER_BOUND ( 'NONE', #198, .T. ) ;
#174 = SURFACE_SIDE_STYLE ('',( #101 ) ) ;
#175 = FACE_BOUND ( 'NONE', #92, .T. ) ;
#176 = VERTEX_POINT ( 'NONE', #224 ) ;
#177 = ADVANCED_BREP_SHAPE_REPRESENTATION ( '2046540', ( #121, #94 ), #3 ) ;
#178 = CIRCLE ( 'NONE', #137, 29.60000000000000142 ) ;
#179 = MECHANICAL_DESIGN_GEOMETRIC_PRESENTATION_REPRESENTATION (  '', ( #126 ), #112 ) ;
#180 = UNCERTAINTY_MEASURE_WITH_UNIT (LENGTH_MEASURE( 1.000000000000000082E-05 ), #103, 'distance_accuracy_value', 'NONE');
#181 = CARTESIAN_POINT ( 'NONE',  ( 0.000000000000000000, 0.000000000000000000, -3000.000000000000000 ) ) ;
#182 = FILL_AREA_STYLE ('',( #26 ) ) ;
#183 = ORIENTED_EDGE ( 'NONE', *, *, #10, .F. ) ;
#184 = DIRECTION ( 'NONE',  ( 1.000000000000000000, 0.000000000000000000, 0.000000000000000000 ) ) ;
#185 = DIRECTION ( 'NONE',  ( -1.000000000000000000, 0.000000000000000000, 0.000000000000000000 ) ) ;
#186 = STYLED_ITEM ( 'NONE', ( #65 ), #177 ) ;
#187 =( NAMED_UNIT ( * ) SI_UNIT ( $, .STERADIAN. ) SOLID_ANGLE_UNIT ( ) );
#188 = PRODUCT ( '2046540', '2046540', '', ( #60 ) ) ;
#189 = CARTESIAN_POINT ( 'NONE',  ( 30.60000000000062670, 0.000000000000000000, -3000.000000000000000 ) ) ;
#190 =( LENGTH_UNIT ( ) NAMED_UNIT ( * ) SI_UNIT ( .MILLI., .METRE. ) );
#191 = CARTESIAN_POINT ( 'NONE',  ( 29.90000000000092584, 0.000000000000000000, 0.000000000000000000 ) ) ;
#192 = PRODUCT_DEFINITION_SHAPE ( 'NONE', 'NONE',  #172 ) ;
#193 = EDGE_CURVE ( 'NONE', #104, #104, #167, .T. ) ;
#194 = CARTESIAN_POINT ( 'NONE',  ( 31.50000000000000000, 0.000000000000000000, -2999.100000000000364 ) ) ;
#195 = ADVANCED_FACE ( 'NONE', ( #46, #115 ), #211, .T. ) ;
#196 = CIRCLE ( 'NONE', #163, 29.89999999999914948 ) ;
#197 = EDGE_CURVE ( 'NONE', #33, #33, #208, .T. ) ;
#198 = EDGE_LOOP ( 'NONE', ( #9 ) ) ;
#199 = DIRECTION ( 'NONE',  ( 1.000000000000000000, 0.000000000000000000, 0.000000000000000000 ) ) ;
#200 = DIRECTION ( 'NONE',  ( 1.000000000000000000, 0.000000000000000000, 0.000000000000000000 ) ) ;
#201 = AXIS2_PLACEMENT_3D ( 'NONE', #99, #79, #153 ) ;
#202 = DIRECTION ( 'NONE',  ( 0.000000000000000000, 0.000000000000000000, 1.000000000000000000 ) ) ;
#203 = EDGE_LOOP ( 'NONE', ( #78 ) ) ;
#204 = EDGE_LOOP ( 'NONE', ( #35 ) ) ;
#205 = SHAPE_DEFINITION_REPRESENTATION ( #192, #177 ) ;
#206 = CARTESIAN_POINT ( 'NONE',  ( 0.000000000000000000, 0.000000000000000000, -2999.100000000000364 ) ) ;
#207 = DIRECTION ( 'NONE',  ( 1.000000000000000000, 0.000000000000000000, 0.000000000000000000 ) ) ;
#208 = CIRCLE ( 'NONE', #164, 29.90000000000092584 ) ;
#209 = DIRECTION ( 'NONE',  ( 0.000000000000000000, 0.000000000000000000, -1.000000000000000000 ) ) ;
#210 = FACE_BOUND ( 'NONE', #170, .T. ) ;
#211 = CYLINDRICAL_SURFACE ( 'NONE', #106, 31.50000000000000000 ) ;
#212 = VERTEX_POINT ( 'NONE', #194 ) ;
#213 = AXIS2_PLACEMENT_3D ( 'NONE', #206, #113, #43 ) ;
#214 = EDGE_CURVE ( 'NONE', #176, #176, #178, .T. ) ;
#215 = CARTESIAN_POINT ( 'NONE',  ( 30.59999999999973852, 0.000000000000000000, 0.000000000000000000 ) ) ;
#216 = COLOUR_RGB ( '',0.7529411764705882248, 0.7529411764705882248, 0.7529411764705882248 ) ;
#217 = ADVANCED_FACE ( 'NONE', ( #210, #154 ), #226, .F. ) ;
#218 = CONICAL_SURFACE ( 'NONE', #213, 31.50000000000000000, 0.7853981633972786369 ) ;
#219 = CARTESIAN_POINT ( 'NONE',  ( 0.000000000000000000, 0.000000000000000000, 0.000000000000000000 ) ) ;
#220 = PRESENTATION_STYLE_ASSIGNMENT (( #75 ) ) ;
#221 = EDGE_LOOP ( 'NONE', ( #54 ) ) ;
#222 = FACE_OUTER_BOUND ( 'NONE', #109, .T. ) ;
#223 = FACE_BOUND ( 'NONE', #88, .T. ) ;
#224 = CARTESIAN_POINT ( 'NONE',  ( 29.60000000000000142, 0.000000000000000000, -0.3000000000010771828 ) ) ;
#225 = CARTESIAN_POINT ( 'NONE',  ( 0.000000000000000000, 0.000000000000000000, -0.3000000000010771828 ) ) ;
#226 = PLANE ( 'NONE',  #89 ) ;
#227 = COLOUR_RGB ( '',0.7529411764705882248, 0.7529411764705882248, 0.7529411764705882248 ) ;
#228 = SURFACE_STYLE_USAGE ( .BOTH. , #174 ) ;
#229 =( NAMED_UNIT ( * ) SI_UNIT ( $, .STERADIAN. ) SOLID_ANGLE_UNIT ( ) );
ENDSEC;
END-ISO-10303-21;
