ISO-10303-21;
HEADER;
FILE_DESCRIPTION((''),'2;1');
FILE_NAME('2046006','2015-06-18T',('AndreasKeweloh'),(''),
'CREO PARAMETRIC BY PTC INC, 2015080','CREO PARAMETRIC BY PTC INC, 2015080','');
FILE_SCHEMA(('CONFIG_CONTROL_DESIGN'));
ENDSEC;
DATA;
#1=CARTESIAN_POINT('',(0.E0,0.E0,-3.E3));
#2=DIRECTION('',(0.E0,0.E0,-1.E0));
#3=DIRECTION('',(1.E0,0.E0,0.E0));
#4=AXIS2_PLACEMENT_3D('',#1,#2,#3);
#6=CARTESIAN_POINT('',(0.E0,0.E0,-3.E3));
#7=DIRECTION('',(0.E0,0.E0,-1.E0));
#8=DIRECTION('',(-1.E0,0.E0,0.E0));
#9=AXIS2_PLACEMENT_3D('',#6,#7,#8);
#11=CARTESIAN_POINT('',(0.E0,0.E0,-3.E3));
#12=DIRECTION('',(0.E0,0.E0,1.E0));
#13=DIRECTION('',(1.E0,0.E0,0.E0));
#14=AXIS2_PLACEMENT_3D('',#11,#12,#13);
#16=CARTESIAN_POINT('',(0.E0,0.E0,-3.E3));
#17=DIRECTION('',(0.E0,0.E0,1.E0));
#18=DIRECTION('',(-1.E0,0.E0,0.E0));
#19=AXIS2_PLACEMENT_3D('',#16,#17,#18);
#21=DIRECTION('',(0.E0,0.E0,-1.E0));
#22=VECTOR('',#21,3.E3);
#23=CARTESIAN_POINT('',(-2.E1,0.E0,0.E0));
#24=LINE('',#23,#22);
#25=DIRECTION('',(0.E0,0.E0,-1.E0));
#26=VECTOR('',#25,3.E3);
#27=CARTESIAN_POINT('',(2.E1,0.E0,0.E0));
#28=LINE('',#27,#26);
#29=CARTESIAN_POINT('',(0.E0,0.E0,0.E0));
#30=DIRECTION('',(0.E0,0.E0,1.E0));
#31=DIRECTION('',(1.E0,0.E0,0.E0));
#32=AXIS2_PLACEMENT_3D('',#29,#30,#31);
#34=CARTESIAN_POINT('',(0.E0,0.E0,0.E0));
#35=DIRECTION('',(0.E0,0.E0,1.E0));
#36=DIRECTION('',(-1.E0,0.E0,0.E0));
#37=AXIS2_PLACEMENT_3D('',#34,#35,#36);
#39=CARTESIAN_POINT('',(0.E0,0.E0,-1.500000000010E-1));
#40=DIRECTION('',(0.E0,0.E0,-1.E0));
#41=DIRECTION('',(1.E0,0.E0,0.E0));
#42=AXIS2_PLACEMENT_3D('',#39,#40,#41);
#44=CARTESIAN_POINT('',(0.E0,0.E0,-1.500000000010E-1));
#45=DIRECTION('',(0.E0,0.E0,-1.E0));
#46=DIRECTION('',(-1.E0,0.E0,0.E0));
#47=AXIS2_PLACEMENT_3D('',#44,#45,#46);
#49=DIRECTION('',(-1.666722223843E-5,0.E0,-9.999999998611E-1));
#50=VECTOR('',#49,2.999900000417E3);
#51=CARTESIAN_POINT('',(1.865E1,0.E0,-1.000000000007E-1));
#52=LINE('',#51,#50);
#53=DIRECTION('',(1.666722223843E-5,0.E0,-9.999999998611E-1));
#54=VECTOR('',#53,2.999900000417E3);
#55=CARTESIAN_POINT('',(-1.865E1,0.E0,-1.000000000007E-1));
#56=LINE('',#55,#54);
#57=CARTESIAN_POINT('',(2.E1,0.E0,0.E0));
#58=CARTESIAN_POINT('',(-2.E1,0.E0,0.E0));
#59=VERTEX_POINT('',#57);
#60=VERTEX_POINT('',#58);
#61=CARTESIAN_POINT('',(1.86E1,0.E0,-3.E3));
#62=CARTESIAN_POINT('',(-1.86E1,0.E0,-3.E3));
#63=VERTEX_POINT('',#61);
#64=VERTEX_POINT('',#62);
#65=CARTESIAN_POINT('',(-1.865E1,0.E0,-1.000000000007E-1));
#66=VERTEX_POINT('',#65);
#67=CARTESIAN_POINT('',(1.865E1,0.E0,-1.000000000007E-1));
#68=VERTEX_POINT('',#67);
#69=CARTESIAN_POINT('',(-2.E1,0.E0,-3.E3));
#70=VERTEX_POINT('',#69);
#71=CARTESIAN_POINT('',(2.E1,0.E0,-3.E3));
#72=VERTEX_POINT('',#71);
#73=CARTESIAN_POINT('',(0.E0,0.E0,-3.E3));
#74=DIRECTION('',(0.E0,0.E0,1.E0));
#75=DIRECTION('',(1.E0,0.E0,0.E0));
#76=AXIS2_PLACEMENT_3D('',#73,#74,#75);
#77=PLANE('',#76);
#79=ORIENTED_EDGE('',*,*,#78,.F.);
#81=ORIENTED_EDGE('',*,*,#80,.F.);
#82=EDGE_LOOP('',(#79,#81));
#83=FACE_OUTER_BOUND('',#82,.F.);
#85=ORIENTED_EDGE('',*,*,#84,.F.);
#87=ORIENTED_EDGE('',*,*,#86,.F.);
#88=EDGE_LOOP('',(#85,#87));
#89=FACE_BOUND('',#88,.F.);
#90=ADVANCED_FACE('',(#83,#89),#77,.F.);
#91=CARTESIAN_POINT('',(0.E0,0.E0,-3.E3));
#92=DIRECTION('',(0.E0,0.E0,1.E0));
#93=DIRECTION('',(1.E0,0.E0,0.E0));
#94=AXIS2_PLACEMENT_3D('',#91,#92,#93);
#95=CYLINDRICAL_SURFACE('',#94,2.E1);
#97=ORIENTED_EDGE('',*,*,#96,.F.);
#99=ORIENTED_EDGE('',*,*,#98,.T.);
#101=ORIENTED_EDGE('',*,*,#100,.T.);
#102=ORIENTED_EDGE('',*,*,#78,.T.);
#103=EDGE_LOOP('',(#97,#99,#101,#102));
#104=FACE_OUTER_BOUND('',#103,.F.);
#105=ADVANCED_FACE('',(#104),#95,.T.);
#106=CARTESIAN_POINT('',(0.E0,0.E0,-3.E3));
#107=DIRECTION('',(0.E0,0.E0,1.E0));
#108=DIRECTION('',(1.E0,0.E0,0.E0));
#109=AXIS2_PLACEMENT_3D('',#106,#107,#108);
#110=CYLINDRICAL_SURFACE('',#109,2.E1);
#111=ORIENTED_EDGE('',*,*,#80,.T.);
#112=ORIENTED_EDGE('',*,*,#100,.F.);
#114=ORIENTED_EDGE('',*,*,#113,.T.);
#115=ORIENTED_EDGE('',*,*,#96,.T.);
#116=EDGE_LOOP('',(#111,#112,#114,#115));
#117=FACE_OUTER_BOUND('',#116,.F.);
#118=ADVANCED_FACE('',(#117),#110,.T.);
#119=CARTESIAN_POINT('',(0.E0,0.E0,0.E0));
#120=DIRECTION('',(0.E0,0.E0,1.E0));
#121=DIRECTION('',(1.E0,0.E0,0.E0));
#122=AXIS2_PLACEMENT_3D('',#119,#120,#121);
#123=PLANE('',#122);
#124=ORIENTED_EDGE('',*,*,#113,.F.);
#125=ORIENTED_EDGE('',*,*,#98,.F.);
#126=EDGE_LOOP('',(#124,#125));
#127=FACE_OUTER_BOUND('',#126,.F.);
#129=ORIENTED_EDGE('',*,*,#128,.F.);
#131=ORIENTED_EDGE('',*,*,#130,.F.);
#132=EDGE_LOOP('',(#129,#131));
#133=FACE_BOUND('',#132,.F.);
#134=ADVANCED_FACE('',(#127,#133),#123,.T.);
#135=CARTESIAN_POINT('',(0.E0,0.E0,-3.E3));
#136=DIRECTION('',(0.E0,0.E0,1.E0));
#137=DIRECTION('',(1.E0,0.E0,0.E0));
#138=AXIS2_PLACEMENT_3D('',#135,#136,#137);
#139=CYLINDRICAL_SURFACE('',#138,1.86E1);
#140=ORIENTED_EDGE('',*,*,#86,.T.);
#142=ORIENTED_EDGE('',*,*,#141,.F.);
#143=ORIENTED_EDGE('',*,*,#128,.T.);
#145=ORIENTED_EDGE('',*,*,#144,.T.);
#146=EDGE_LOOP('',(#140,#142,#143,#145));
#147=FACE_OUTER_BOUND('',#146,.F.);
#148=ADVANCED_FACE('',(#147),#139,.F.);
#149=CARTESIAN_POINT('',(0.E0,0.E0,-3.E3));
#150=DIRECTION('',(0.E0,0.E0,1.E0));
#151=DIRECTION('',(1.E0,0.E0,0.E0));
#152=AXIS2_PLACEMENT_3D('',#149,#150,#151);
#153=CYLINDRICAL_SURFACE('',#152,1.86E1);
#154=ORIENTED_EDGE('',*,*,#144,.F.);
#155=ORIENTED_EDGE('',*,*,#130,.T.);
#156=ORIENTED_EDGE('',*,*,#141,.T.);
#157=ORIENTED_EDGE('',*,*,#84,.T.);
#158=EDGE_LOOP('',(#154,#155,#156,#157));
#159=FACE_OUTER_BOUND('',#158,.F.);
#160=ADVANCED_FACE('',(#159),#153,.F.);
#161=CLOSED_SHELL('',(#90,#105,#118,#134,#148,#160));
#162=CARTESIAN_POINT('',(0.E0,0.E0,-1.500000000001E-1));
#163=DIRECTION('',(0.E0,0.E0,1.E0));
#164=DIRECTION('',(1.E0,0.E0,0.E0));
#165=AXIS2_PLACEMENT_3D('',#162,#163,#164);
#167=CARTESIAN_POINT('',(0.E0,0.E0,-1.500000000001E-1));
#168=DIRECTION('',(0.E0,0.E0,1.E0));
#169=DIRECTION('',(1.E0,0.E0,0.E0));
#170=AXIS2_PLACEMENT_3D('',#167,#168,#169);
#172=CARTESIAN_POINT('',(0.E0,0.E0,-1.500000000001E-1));
#173=DIRECTION('',(0.E0,0.E0,1.E0));
#174=DIRECTION('',(-1.E0,0.E0,0.E0));
#175=AXIS2_PLACEMENT_3D('',#172,#173,#174);
#177=CARTESIAN_POINT('',(-1.875E1,0.E0,-1.500000000001E-1));
#178=DIRECTION('',(0.E0,1.E0,0.E0));
#179=DIRECTION('',(-1.E0,0.E0,0.E0));
#180=AXIS2_PLACEMENT_3D('',#177,#178,#179);
#182=CARTESIAN_POINT('',(0.E0,0.E0,-1.500000000001E-1));
#183=DIRECTION('',(0.E0,0.E0,1.E0));
#184=DIRECTION('',(-1.E0,0.E0,0.E0));
#185=AXIS2_PLACEMENT_3D('',#182,#183,#184);
#187=CARTESIAN_POINT('',(1.875E1,0.E0,-1.500000000001E-1));
#188=DIRECTION('',(0.E0,-1.E0,0.E0));
#189=DIRECTION('',(1.E0,0.E0,0.E0));
#190=AXIS2_PLACEMENT_3D('',#187,#188,#189);
#192=CARTESIAN_POINT('',(-1.875E1,0.E0,-1.500000000001E-1));
#193=DIRECTION('',(0.E0,1.E0,0.E0));
#194=DIRECTION('',(1.E0,0.E0,0.E0));
#195=AXIS2_PLACEMENT_3D('',#192,#193,#194);
#197=CARTESIAN_POINT('',(1.875E1,0.E0,-1.500000000001E-1));
#198=DIRECTION('',(0.E0,-1.E0,0.E0));
#199=DIRECTION('',(-1.E0,0.E0,0.E0));
#200=AXIS2_PLACEMENT_3D('',#197,#198,#199);
#202=CARTESIAN_POINT('',(1.86E1,0.E0,-1.500000000001E-1));
#203=CARTESIAN_POINT('',(-1.86E1,0.E0,-1.500000000001E-1));
#204=VERTEX_POINT('',#202);
#205=VERTEX_POINT('',#203);
#206=CARTESIAN_POINT('',(1.89E1,0.E0,-1.500000000001E-1));
#207=VERTEX_POINT('',#206);
#208=CARTESIAN_POINT('',(-1.89E1,0.E0,-1.500000000001E-1));
#209=VERTEX_POINT('',#208);
#210=CARTESIAN_POINT('',(0.E0,0.E0,-1.500000000001E-1));
#211=DIRECTION('',(0.E0,0.E0,1.E0));
#212=DIRECTION('',(1.E0,0.E0,0.E0));
#213=AXIS2_PLACEMENT_3D('',#210,#211,#212);
#214=TOROIDAL_SURFACE('',#213,1.875E1,1.5E-1);
#216=ORIENTED_EDGE('',*,*,#215,.F.);
#218=ORIENTED_EDGE('',*,*,#217,.T.);
#220=ORIENTED_EDGE('',*,*,#219,.T.);
#222=ORIENTED_EDGE('',*,*,#221,.F.);
#223=EDGE_LOOP('',(#216,#218,#220,#222));
#224=FACE_OUTER_BOUND('',#223,.F.);
#225=ADVANCED_FACE('',(#224),#214,.T.);
#226=CARTESIAN_POINT('',(0.E0,0.E0,-1.500000000001E-1));
#227=DIRECTION('',(0.E0,0.E0,1.E0));
#228=DIRECTION('',(1.E0,0.E0,0.E0));
#229=AXIS2_PLACEMENT_3D('',#226,#227,#228);
#230=TOROIDAL_SURFACE('',#229,1.875E1,1.5E-1);
#231=ORIENTED_EDGE('',*,*,#219,.F.);
#233=ORIENTED_EDGE('',*,*,#232,.T.);
#234=ORIENTED_EDGE('',*,*,#215,.T.);
#236=ORIENTED_EDGE('',*,*,#235,.F.);
#237=EDGE_LOOP('',(#231,#233,#234,#236));
#238=FACE_OUTER_BOUND('',#237,.F.);
#239=ADVANCED_FACE('',(#238),#230,.T.);
#240=CARTESIAN_POINT('',(0.E0,0.E0,-1.500000000001E-1));
#241=DIRECTION('',(0.E0,0.E0,1.E0));
#242=DIRECTION('',(1.E0,0.E0,0.E0));
#243=AXIS2_PLACEMENT_3D('',#240,#241,#242);
#244=TOROIDAL_SURFACE('',#243,1.875E1,1.5E-1);
#246=ORIENTED_EDGE('',*,*,#245,.F.);
#247=ORIENTED_EDGE('',*,*,#235,.T.);
#249=ORIENTED_EDGE('',*,*,#248,.T.);
#250=ORIENTED_EDGE('',*,*,#232,.F.);
#251=EDGE_LOOP('',(#246,#247,#249,#250));
#252=FACE_OUTER_BOUND('',#251,.F.);
#253=ADVANCED_FACE('',(#252),#244,.T.);
#254=CARTESIAN_POINT('',(0.E0,0.E0,-1.500000000001E-1));
#255=DIRECTION('',(0.E0,0.E0,1.E0));
#256=DIRECTION('',(1.E0,0.E0,0.E0));
#257=AXIS2_PLACEMENT_3D('',#254,#255,#256);
#258=TOROIDAL_SURFACE('',#257,1.875E1,1.5E-1);
#259=ORIENTED_EDGE('',*,*,#248,.F.);
#260=ORIENTED_EDGE('',*,*,#221,.T.);
#261=ORIENTED_EDGE('',*,*,#245,.T.);
#262=ORIENTED_EDGE('',*,*,#217,.F.);
#263=EDGE_LOOP('',(#259,#260,#261,#262));
#264=FACE_OUTER_BOUND('',#263,.F.);
#265=ADVANCED_FACE('',(#264),#258,.T.);
#266=OPEN_SHELL('',(#225,#239,#253,#265));
#267=CARTESIAN_POINT('',(0.E0,0.E0,-1.500000000001E-1));
#268=DIRECTION('',(0.E0,0.E0,1.E0));
#269=DIRECTION('',(1.E0,0.E0,0.E0));
#270=AXIS2_PLACEMENT_3D('',#267,#268,#269);
#272=CARTESIAN_POINT('',(0.E0,0.E0,-1.500000000001E-1));
#273=DIRECTION('',(0.E0,0.E0,1.E0));
#274=DIRECTION('',(1.E0,0.E0,0.E0));
#275=AXIS2_PLACEMENT_3D('',#272,#273,#274);
#277=CARTESIAN_POINT('',(0.E0,0.E0,-1.500000000001E-1));
#278=DIRECTION('',(0.E0,0.E0,1.E0));
#279=DIRECTION('',(-1.E0,0.E0,0.E0));
#280=AXIS2_PLACEMENT_3D('',#277,#278,#279);
#282=CARTESIAN_POINT('',(-1.875E1,0.E0,-1.500000000001E-1));
#283=DIRECTION('',(0.E0,1.E0,0.E0));
#284=DIRECTION('',(-1.E0,0.E0,0.E0));
#285=AXIS2_PLACEMENT_3D('',#282,#283,#284);
#287=CARTESIAN_POINT('',(0.E0,0.E0,-1.500000000001E-1));
#288=DIRECTION('',(0.E0,0.E0,1.E0));
#289=DIRECTION('',(-1.E0,0.E0,0.E0));
#290=AXIS2_PLACEMENT_3D('',#287,#288,#289);
#292=CARTESIAN_POINT('',(1.875E1,0.E0,-1.500000000001E-1));
#293=DIRECTION('',(0.E0,-1.E0,0.E0));
#294=DIRECTION('',(1.E0,0.E0,0.E0));
#295=AXIS2_PLACEMENT_3D('',#292,#293,#294);
#297=CARTESIAN_POINT('',(-1.875E1,0.E0,-1.500000000001E-1));
#298=DIRECTION('',(0.E0,1.E0,0.E0));
#299=DIRECTION('',(1.E0,0.E0,0.E0));
#300=AXIS2_PLACEMENT_3D('',#297,#298,#299);
#302=CARTESIAN_POINT('',(1.875E1,0.E0,-1.500000000001E-1));
#303=DIRECTION('',(0.E0,-1.E0,0.E0));
#304=DIRECTION('',(-1.E0,0.E0,0.E0));
#305=AXIS2_PLACEMENT_3D('',#302,#303,#304);
#307=CARTESIAN_POINT('',(1.86E1,0.E0,-1.500000000001E-1));
#308=CARTESIAN_POINT('',(-1.86E1,0.E0,-1.500000000001E-1));
#309=VERTEX_POINT('',#307);
#310=VERTEX_POINT('',#308);
#311=CARTESIAN_POINT('',(1.89E1,0.E0,-1.500000000001E-1));
#312=VERTEX_POINT('',#311);
#313=CARTESIAN_POINT('',(-1.89E1,0.E0,-1.500000000001E-1));
#314=VERTEX_POINT('',#313);
#315=CARTESIAN_POINT('',(0.E0,0.E0,-1.500000000001E-1));
#316=DIRECTION('',(0.E0,0.E0,1.E0));
#317=DIRECTION('',(1.E0,0.E0,0.E0));
#318=AXIS2_PLACEMENT_3D('',#315,#316,#317);
#319=TOROIDAL_SURFACE('',#318,1.875E1,1.5E-1);
#321=ORIENTED_EDGE('',*,*,#320,.F.);
#323=ORIENTED_EDGE('',*,*,#322,.T.);
#325=ORIENTED_EDGE('',*,*,#324,.T.);
#327=ORIENTED_EDGE('',*,*,#326,.F.);
#328=EDGE_LOOP('',(#321,#323,#325,#327));
#329=FACE_OUTER_BOUND('',#328,.F.);
#330=ADVANCED_FACE('',(#329),#319,.T.);
#331=CARTESIAN_POINT('',(0.E0,0.E0,-1.500000000001E-1));
#332=DIRECTION('',(0.E0,0.E0,1.E0));
#333=DIRECTION('',(1.E0,0.E0,0.E0));
#334=AXIS2_PLACEMENT_3D('',#331,#332,#333);
#335=TOROIDAL_SURFACE('',#334,1.875E1,1.5E-1);
#336=ORIENTED_EDGE('',*,*,#324,.F.);
#338=ORIENTED_EDGE('',*,*,#337,.T.);
#339=ORIENTED_EDGE('',*,*,#320,.T.);
#341=ORIENTED_EDGE('',*,*,#340,.F.);
#342=EDGE_LOOP('',(#336,#338,#339,#341));
#343=FACE_OUTER_BOUND('',#342,.F.);
#344=ADVANCED_FACE('',(#343),#335,.T.);
#345=CARTESIAN_POINT('',(0.E0,0.E0,-1.500000000001E-1));
#346=DIRECTION('',(0.E0,0.E0,1.E0));
#347=DIRECTION('',(1.E0,0.E0,0.E0));
#348=AXIS2_PLACEMENT_3D('',#345,#346,#347);
#349=TOROIDAL_SURFACE('',#348,1.875E1,1.5E-1);
#351=ORIENTED_EDGE('',*,*,#350,.F.);
#352=ORIENTED_EDGE('',*,*,#340,.T.);
#354=ORIENTED_EDGE('',*,*,#353,.T.);
#355=ORIENTED_EDGE('',*,*,#337,.F.);
#356=EDGE_LOOP('',(#351,#352,#354,#355));
#357=FACE_OUTER_BOUND('',#356,.F.);
#358=ADVANCED_FACE('',(#357),#349,.T.);
#359=CARTESIAN_POINT('',(0.E0,0.E0,-1.500000000001E-1));
#360=DIRECTION('',(0.E0,0.E0,1.E0));
#361=DIRECTION('',(1.E0,0.E0,0.E0));
#362=AXIS2_PLACEMENT_3D('',#359,#360,#361);
#363=TOROIDAL_SURFACE('',#362,1.875E1,1.5E-1);
#364=ORIENTED_EDGE('',*,*,#353,.F.);
#365=ORIENTED_EDGE('',*,*,#326,.T.);
#366=ORIENTED_EDGE('',*,*,#350,.T.);
#367=ORIENTED_EDGE('',*,*,#322,.F.);
#368=EDGE_LOOP('',(#364,#365,#366,#367));
#369=FACE_OUTER_BOUND('',#368,.F.);
#370=ADVANCED_FACE('',(#369),#363,.T.);
#371=OPEN_SHELL('',(#330,#344,#358,#370));
#372=MANIFOLD_SOLID_BREP('',#161);
#373=SHELL_BASED_SURFACE_MODEL('',(#266,#371));
#375=DIMENSIONAL_EXPONENTS(0.E0,0.E0,0.E0,0.E0,0.E0,0.E0,0.E0);
#377=PLANE_ANGLE_MEASURE_WITH_UNIT(PLANE_ANGLE_MEASURE(1.745329251994E-2),#376);
#378=(CONVERSION_BASED_UNIT('DEGREE',#377)NAMED_UNIT(*)PLANE_ANGLE_UNIT());
#380=UNCERTAINTY_MEASURE_WITH_UNIT(LENGTH_MEASURE(3.000415395808E-1),#374,
'closure',
'Maximum model space distance between geometric entities at asserted connectivities');
#381=(GEOMETRIC_REPRESENTATION_CONTEXT(3)GLOBAL_UNCERTAINTY_ASSIGNED_CONTEXT((
#380))GLOBAL_UNIT_ASSIGNED_CONTEXT((#374,#378,#379))REPRESENTATION_CONTEXT
('ID1','3'));
#384=CARTESIAN_POINT('',(0.E0,0.E0,0.E0));
#385=DIRECTION('',(0.E0,0.E0,1.E0));
#386=DIRECTION('',(1.E0,0.E0,0.E0));
#389=SHAPE_REPRESENTATION_RELATIONSHIP('','',#388,#382);
#390=SHAPE_REPRESENTATION_RELATIONSHIP('','',#388,#383);
#391=APPLICATION_CONTEXT(
'CONFIGURATION CONTROLLED 3D DESIGNS OF MECHANICAL PARTS AND ASSEMBLIES');
#392=APPLICATION_PROTOCOL_DEFINITION('international standard',
'config_control_design',1994,#391);
#393=DESIGN_CONTEXT('',#391,'design');
#394=MECHANICAL_CONTEXT('',#391,'mechanical');
#395=PRODUCT('2046006','2046006','NOT SPECIFIED',(#394));
#396=PRODUCT_DEFINITION_FORMATION_WITH_SPECIFIED_SOURCE('1','LAST_VERSION',#395,
.MADE.);
#400=PRODUCT_CATEGORY('part','');
#401=PRODUCT_RELATED_PRODUCT_CATEGORY('detail','',(#395));
#402=PRODUCT_CATEGORY_RELATIONSHIP('','',#400,#401);
#403=SECURITY_CLASSIFICATION_LEVEL('unclassified');
#404=SECURITY_CLASSIFICATION('','',#403);
#405=CC_DESIGN_SECURITY_CLASSIFICATION(#404,(#396));
#406=APPROVAL_STATUS('approved');
#407=APPROVAL(#406,'');
#408=CC_DESIGN_APPROVAL(#407,(#404,#396,#397));
#409=CALENDAR_DATE(115,18,6);
#410=COORDINATED_UNIVERSAL_TIME_OFFSET(2,0,.AHEAD.);
#411=LOCAL_TIME(10,24,4.3E1,#410);
#412=DATE_AND_TIME(#409,#411);
#413=APPROVAL_DATE_TIME(#412,#407);
#414=DATE_TIME_ROLE('creation_date');
#415=CC_DESIGN_DATE_AND_TIME_ASSIGNMENT(#412,#414,(#397));
#416=DATE_TIME_ROLE('classification_date');
#417=CC_DESIGN_DATE_AND_TIME_ASSIGNMENT(#412,#416,(#404));
#418=PERSON('UNSPECIFIED','UNSPECIFIED',$,$,$,$);
#419=ORGANIZATION('UNSPECIFIED','UNSPECIFIED','UNSPECIFIED');
#420=PERSON_AND_ORGANIZATION(#418,#419);
#421=APPROVAL_ROLE('approver');
#422=APPROVAL_PERSON_ORGANIZATION(#420,#407,#421);
#423=PERSON_AND_ORGANIZATION_ROLE('creator');
#424=CC_DESIGN_PERSON_AND_ORGANIZATION_ASSIGNMENT(#420,#423,(#396,#397));
#425=PERSON_AND_ORGANIZATION_ROLE('design_supplier');
#426=CC_DESIGN_PERSON_AND_ORGANIZATION_ASSIGNMENT(#420,#425,(#396));
#427=PERSON_AND_ORGANIZATION_ROLE('classification_officer');
#428=CC_DESIGN_PERSON_AND_ORGANIZATION_ASSIGNMENT(#420,#427,(#404));
#429=PERSON_AND_ORGANIZATION_ROLE('design_owner');
#430=CC_DESIGN_PERSON_AND_ORGANIZATION_ASSIGNMENT(#420,#429,(#395));
#5=CIRCLE('',#4,2.E1);
#10=CIRCLE('',#9,2.E1);
#15=CIRCLE('',#14,1.86E1);
#20=CIRCLE('',#19,1.86E1);
#33=CIRCLE('',#32,2.E1);
#38=CIRCLE('',#37,2.E1);
#43=CIRCLE('',#42,1.86E1);
#48=CIRCLE('',#47,1.86E1);
#78=EDGE_CURVE('',#72,#70,#5,.T.);
#80=EDGE_CURVE('',#70,#72,#10,.T.);
#84=EDGE_CURVE('',#63,#64,#15,.T.);
#86=EDGE_CURVE('',#64,#63,#20,.T.);
#96=EDGE_CURVE('',#60,#70,#24,.T.);
#98=EDGE_CURVE('',#60,#59,#38,.T.);
#100=EDGE_CURVE('',#59,#72,#28,.T.);
#113=EDGE_CURVE('',#59,#60,#33,.T.);
#128=EDGE_CURVE('',#68,#66,#43,.T.);
#130=EDGE_CURVE('',#66,#68,#48,.T.);
#141=EDGE_CURVE('',#68,#63,#52,.T.);
#144=EDGE_CURVE('',#66,#64,#56,.T.);
#166=CIRCLE('',#165,1.89E1);
#171=CIRCLE('',#170,1.86E1);
#176=CIRCLE('',#175,1.89E1);
#181=CIRCLE('',#180,1.5E-1);
#186=CIRCLE('',#185,1.86E1);
#191=CIRCLE('',#190,1.5E-1);
#196=CIRCLE('',#195,1.5E-1);
#201=CIRCLE('',#200,1.5E-1);
#215=EDGE_CURVE('',#204,#205,#171,.T.);
#217=EDGE_CURVE('',#204,#207,#201,.T.);
#219=EDGE_CURVE('',#207,#209,#166,.T.);
#221=EDGE_CURVE('',#205,#209,#196,.T.);
#232=EDGE_CURVE('',#207,#204,#191,.T.);
#235=EDGE_CURVE('',#209,#205,#181,.T.);
#245=EDGE_CURVE('',#209,#207,#176,.T.);
#248=EDGE_CURVE('',#205,#204,#186,.T.);
#271=CIRCLE('',#270,1.89E1);
#276=CIRCLE('',#275,1.86E1);
#281=CIRCLE('',#280,1.89E1);
#286=CIRCLE('',#285,1.5E-1);
#291=CIRCLE('',#290,1.86E1);
#296=CIRCLE('',#295,1.5E-1);
#301=CIRCLE('',#300,1.5E-1);
#306=CIRCLE('',#305,1.5E-1);
#320=EDGE_CURVE('',#309,#310,#276,.T.);
#322=EDGE_CURVE('',#309,#312,#306,.T.);
#324=EDGE_CURVE('',#312,#314,#271,.T.);
#326=EDGE_CURVE('',#310,#314,#301,.T.);
#337=EDGE_CURVE('',#312,#309,#296,.T.);
#340=EDGE_CURVE('',#314,#310,#286,.T.);
#350=EDGE_CURVE('',#314,#312,#281,.T.);
#353=EDGE_CURVE('',#310,#309,#291,.T.);
#374=(LENGTH_UNIT()NAMED_UNIT(*)SI_UNIT(.MILLI.,.METRE.));
#376=(NAMED_UNIT(*)PLANE_ANGLE_UNIT()SI_UNIT($,.RADIAN.));
#379=(NAMED_UNIT(*)SI_UNIT($,.STERADIAN.)SOLID_ANGLE_UNIT());
#382=ADVANCED_BREP_SHAPE_REPRESENTATION('',(#372),#381);
#383=MANIFOLD_SURFACE_SHAPE_REPRESENTATION('',(#373),#381);
#387=AXIS2_PLACEMENT_3D('',#384,#385,#386);
#388=SHAPE_REPRESENTATION('',(#387),#381);
#397=PRODUCT_DEFINITION('design','',#396,#393);
#398=PRODUCT_DEFINITION_SHAPE('','SHAPE FOR 2046006.',#397);
#399=SHAPE_DEFINITION_REPRESENTATION(#398,#388);
ENDSEC;
END-ISO-10303-21;
