ISO-10303-21;
HEADER;
FILE_DESCRIPTION (( 'STEP AP214' ),
    '1' );
FILE_NAME ('2033032_KSTP1.stp',
    '2018-09-11T09:00:51',
    ( '' ),
    ( '' ),
    'SwSTEP 2.0',
    'SolidWorks 2018',
    '' );
FILE_SCHEMA (( 'AUTOMOTIVE_DESIGN' ));
ENDSEC;

DATA;
#1 = ORIENTED_EDGE ( 'NONE', *, *, #346, .F. ) ;
#2 =( NAMED_UNIT ( * ) PLANE_ANGLE_UNIT ( ) SI_UNIT ( $, .RADIAN. ) );
#3 = EDGE_CURVE ( 'NONE', #86, #47, #40, .T. ) ;
#4 = CYLINDRICAL_SURFACE ( 'NONE', #338, 28.00000000000004619 ) ;
#5 =( LENGTH_UNIT ( ) NAMED_UNIT ( * ) SI_UNIT ( .MILLI., .METRE. ) );
#6 = ORIENTED_EDGE ( 'NONE', *, *, #169, .T. ) ;
#7 = STYLED_ITEM ( 'NONE', ( #174 ), #335 ) ;
#8 = ADVANCED_FACE ( 'NONE', ( #93, #165 ), #337, .T. ) ;
#9 = EDGE_CURVE ( 'NONE', #115, #195, #222, .T. ) ;
#10 = VERTEX_POINT ( 'NONE', #14 ) ;
#11 = CARTESIAN_POINT ( 'NONE',  ( 3.119331847472293043E-14, -84.86111111111135585, 0.0000000000000000000 ) ) ;
#12 = FACE_OUTER_BOUND ( 'NONE', #189, .T. ) ;
#13 = DIRECTION ( 'NONE',  ( 7.284826300225047977E-16, 1.000000000000000000, -0.0000000000000000000 ) ) ;
#14 = CARTESIAN_POINT ( 'NONE',  ( -24.99999999999998934, -11.50000000000000000, 0.0000000000000000000 ) ) ;
#15 = EDGE_CURVE ( 'NONE', #87, #115, #150, .T. ) ;
#16 = LINE ( 'NONE', #69, #80 ) ;
#17 = VERTEX_POINT ( 'NONE', #146 ) ;
#18 = DIRECTION ( 'NONE',  ( 7.284826300225047977E-16, 1.000000000000000000, -0.0000000000000000000 ) ) ;
#19 = ORIENTED_EDGE ( 'NONE', *, *, #156, .T. ) ;
#20 = DIRECTION ( 'NONE',  ( -1.000000000000000000, 7.970141680194611066E-16, 0.0000000000000000000 ) ) ;
#21 = DIRECTION ( 'NONE',  ( 7.284826300225047977E-16, 1.000000000000000000, -0.0000000000000000000 ) ) ;
#22 = EDGE_CURVE ( 'NONE', #17, #115, #230, .T. ) ;
#23 = FACE_OUTER_BOUND ( 'NONE', #142, .T. ) ;
#24 = DIRECTION ( 'NONE',  ( 0.0000000000000000000, 0.0000000000000000000, 1.000000000000000000 ) ) ;
#25 = AXIS2_PLACEMENT_3D ( 'NONE', #163, #114, #210 ) ;
#26 = SURFACE_STYLE_USAGE ( .BOTH. , #107 ) ;
#27 = FACE_OUTER_BOUND ( 'NONE', #342, .T. ) ;
#28 = ORIENTED_EDGE ( 'NONE', *, *, #235, .F. ) ;
#29 = ADVANCED_FACE ( 'NONE', ( #308 ), #4, .T. ) ;
#30 = CARTESIAN_POINT ( 'NONE',  ( 25.00000000000006040, -1.500000000000036859, 3.061616997868386592E-15 ) ) ;
#31 = DIRECTION ( 'NONE',  ( -1.224646799147353207E-16, 8.921339210915059975E-32, 1.000000000000000000 ) ) ;
#32 = FACE_BOUND ( 'NONE', #283, .T. ) ;
#33 = PRESENTATION_LAYER_ASSIGNMENT (  '', '', ( #7 ) ) ;
#34 =( NAMED_UNIT ( * ) PLANE_ANGLE_UNIT ( ) SI_UNIT ( $, .RADIAN. ) );
#35 = ORIENTED_EDGE ( 'NONE', *, *, #15, .F. ) ;
#36 = ORIENTED_EDGE ( 'NONE', *, *, #22, .F. ) ;
#37 = CLOSED_SHELL ( 'NONE', ( #135, #162, #111, #78, #53, #294, #187, #29, #270, #182, #322, #8 ) ) ;
#38 = AXIS2_PLACEMENT_3D ( 'NONE', #315, #50, #314 ) ;
#39 = DIRECTION ( 'NONE',  ( 7.284826300225047977E-16, 1.000000000000000000, -0.0000000000000000000 ) ) ;
#40 = CIRCLE ( 'NONE', #190, 87.06111111111137291 ) ;
#41 = CARTESIAN_POINT ( 'NONE',  ( -28.00000000000000711, 4.500000000000024869, 0.0000000000000000000 ) ) ;
#42 = EDGE_CURVE ( 'NONE', #330, #71, #206, .T. ) ;
#43 = DIRECTION ( 'NONE',  ( -1.000000000000000000, 7.284826300225046991E-16, 0.0000000000000000000 ) ) ;
#44 = PRODUCT_DEFINITION ( 'UNKNOWN', '', #118, #316 ) ;
#45 = VECTOR ( 'NONE', #227, 1000.000000000000000 ) ;
#46 = PRODUCT ( '2033032_KSTP1', '2033032_KSTP1', '', ( #271 ) ) ;
#47 = VERTEX_POINT ( 'NONE', #332 ) ;
#48 = DIRECTION ( 'NONE',  ( -1.000000000000000000, 6.938893903907224433E-16, 0.0000000000000000000 ) ) ;
#49 = ORIENTED_EDGE ( 'NONE', *, *, #166, .T. ) ;
#50 = DIRECTION ( 'NONE',  ( 0.0000000000000000000, 0.0000000000000000000, 1.000000000000000000 ) ) ;
#51 = SURFACE_STYLE_FILL_AREA ( #133 ) ;
#52 =( NAMED_UNIT ( * ) PLANE_ANGLE_UNIT ( ) SI_UNIT ( $, .RADIAN. ) );
#53 = ADVANCED_FACE ( 'NONE', ( #23 ), #137, .T. ) ;
#54 = CARTESIAN_POINT ( 'NONE',  ( 3.119331847472293043E-14, -84.86111111111135585, 0.0000000000000000000 ) ) ;
#55 = COLOUR_RGB ( '',0.7529411764705882248, 0.7529411764705882248, 0.7529411764705882248 ) ;
#56 = ORIENTED_EDGE ( 'NONE', *, *, #9, .T. ) ;
#57 = APPLICATION_PROTOCOL_DEFINITION ( 'draft international standard', 'automotive_design', 1998, #139 ) ;
#58 = CARTESIAN_POINT ( 'NONE',  ( 3.521521172304756950E-14, -1.500000000000018652, 0.0000000000000000000 ) ) ;
#59 = CONICAL_SURFACE ( 'NONE', #239, 22.50000000000001421, 0.03490658503988742362 ) ;
#60 = VERTEX_POINT ( 'NONE', #201 ) ;
#61 = EDGE_CURVE ( 'NONE', #71, #330, #68, .T. ) ;
#62 = ORIENTED_EDGE ( 'NONE', *, *, #74, .F. ) ;
#63 = ORIENTED_EDGE ( 'NONE', *, *, #74, .T. ) ;
#64 = AXIS2_PLACEMENT_3D ( 'NONE', #288, #196, #48 ) ;
#65 = FACE_OUTER_BOUND ( 'NONE', #238, .T. ) ;
#66 = ORIENTED_EDGE ( 'NONE', *, *, #102, .T. ) ;
#67 = DIRECTION ( 'NONE',  ( 7.284826300225047977E-16, 1.000000000000000000, -0.0000000000000000000 ) ) ;
#68 = CIRCLE ( 'NONE', #64, 22.50000000000001421 ) ;
#69 = CARTESIAN_POINT ( 'NONE',  ( 22.50000000000003908, -11.50000000000003197, 0.0000000000000000000 ) ) ;
#70 = ORIENTED_EDGE ( 'NONE', *, *, #61, .F. ) ;
#71 = VERTEX_POINT ( 'NONE', #252 ) ;
#72 = CARTESIAN_POINT ( 'NONE',  ( 25.00000000000006040, 4.499999999999985789, 3.061616997868385804E-15 ) ) ;
#73 = ORIENTED_EDGE ( 'NONE', *, *, #213, .T. ) ;
#74 = EDGE_CURVE ( 'NONE', #244, #86, #345, .T. ) ;
#75 = DIRECTION ( 'NONE',  ( -1.000000000000000000, 7.434529182757732576E-16, 0.0000000000000000000 ) ) ;
#76 = CARTESIAN_POINT ( 'NONE',  ( 2.793038542282251975E-14, -11.50000000000001776, 0.0000000000000000000 ) ) ;
#77 = DIRECTION ( 'NONE',  ( -1.000000000000000000, 6.938893903907223447E-16, 0.0000000000000000000 ) ) ;
#78 = ADVANCED_FACE ( 'NONE', ( #65 ), #282, .T. ) ;
#79 = DIRECTION ( 'NONE',  ( 7.284826300225047977E-16, 1.000000000000000000, -0.0000000000000000000 ) ) ;
#80 = VECTOR ( 'NONE', #172, 1000.000000000000227 ) ;
#81 = ORIENTED_EDGE ( 'NONE', *, *, #120, .F. ) ;
#82 = CARTESIAN_POINT ( 'NONE',  ( -24.99999999999998934, -1.500000000000001998, 0.0000000000000000000 ) ) ;
#83 = AXIS2_PLACEMENT_3D ( 'NONE', #76, #325, #77 ) ;
#84 = EDGE_CURVE ( 'NONE', #179, #242, #141, .T. ) ;
#85 = DIRECTION ( 'NONE',  ( -1.000000000000000000, 7.285838599102582894E-16, 0.0000000000000000000 ) ) ;
#86 = VERTEX_POINT ( 'NONE', #223 ) ;
#87 = VERTEX_POINT ( 'NONE', #254 ) ;
#88 = AXIS2_PLACEMENT_3D ( 'NONE', #127, #265, #344 ) ;
#89 = DIRECTION ( 'NONE',  ( -7.284826300225047977E-16, -1.000000000000000000, 0.0000000000000000000 ) ) ;
#90 = LINE ( 'NONE', #297, #240 ) ;
#91 = CARTESIAN_POINT ( 'NONE',  ( -22.49999999999998579, -11.50000000000000178, 0.0000000000000000000 ) ) ;
#92 = VECTOR ( 'NONE', #216, 1000.000000000000000 ) ;
#93 = FACE_BOUND ( 'NONE', #138, .T. ) ;
#94 = DIRECTION ( 'NONE',  ( 1.000000000000000000, -6.938893903907224433E-16, 0.0000000000000000000 ) ) ;
#95 = CARTESIAN_POINT ( 'NONE',  ( 3.119331847472293043E-14, -84.86111111111135585, 0.0000000000000000000 ) ) ;
#96 = CARTESIAN_POINT ( 'NONE',  ( 3.582910618205776934E-14, -0.6572970532032771374, 0.0000000000000000000 ) ) ;
#97 = SPHERICAL_SURFACE ( 'NONE', #261, 87.06111111111137291 ) ;
#98 = CARTESIAN_POINT ( 'NONE',  ( 3.521521172304756950E-14, -1.500000000000018652, 0.0000000000000000000 ) ) ;
#99 = AXIS2_PLACEMENT_3D ( 'NONE', #324, #31, #302 ) ;
#100 = EDGE_LOOP ( 'NONE', ( #28, #131, #298 ) ) ;
#101 = CARTESIAN_POINT ( 'NONE',  ( -22.12136446972737147, -0.6572970532032617053, 0.0000000000000000000 ) ) ;
#102 = EDGE_CURVE ( 'NONE', #10, #60, #303, .T. ) ;
#103 = DIRECTION ( 'NONE',  ( 7.284826300225047977E-16, 1.000000000000000000, -0.0000000000000000000 ) ) ;
#104 = FACE_OUTER_BOUND ( 'NONE', #247, .T. ) ;
#105 = ORIENTED_EDGE ( 'NONE', *, *, #22, .T. ) ;
#106 = CARTESIAN_POINT ( 'NONE',  ( 28.00000000000008171, -1.500000000000042633, 3.429011037612594404E-15 ) ) ;
#107 = SURFACE_SIDE_STYLE ('',( #158 ) ) ;
#108 = DIRECTION ( 'NONE',  ( -1.000000000000000000, 7.279643158116945946E-16, 0.0000000000000000000 ) ) ;
#109 =( LENGTH_UNIT ( ) NAMED_UNIT ( * ) SI_UNIT ( .MILLI., .METRE. ) );
#110 = ORIENTED_EDGE ( 'NONE', *, *, #219, .F. ) ;
#111 = ADVANCED_FACE ( 'NONE', ( #12 ), #273, .T. ) ;
#112 = DIRECTION ( 'NONE',  ( -1.000000000000000000, 7.285838599102583880E-16, 0.0000000000000000000 ) ) ;
#113 = CIRCLE ( 'NONE', #320, 28.00000000000004619 ) ;
#114 = DIRECTION ( 'NONE',  ( 0.0000000000000000000, 0.0000000000000000000, 1.000000000000000000 ) ) ;
#115 = VERTEX_POINT ( 'NONE', #200 ) ;
#116 = ORIENTED_EDGE ( 'NONE', *, *, #102, .F. ) ;
#117 = CARTESIAN_POINT ( 'NONE',  ( 3.119331847472293043E-14, -84.86111111111135585, 0.0000000000000000000 ) ) ;
#118 = PRODUCT_DEFINITION_FORMATION_WITH_SPECIFIED_SOURCE ( 'ANY', '', #46, .NOT_KNOWN. ) ;
#119 = CIRCLE ( 'NONE', #123, 28.00000000000004263 ) ;
#120 = EDGE_CURVE ( 'NONE', #86, #71, #16, .T. ) ;
#121 = DIRECTION ( 'NONE',  ( -1.000000000000000000, 6.938893903907224433E-16, 0.0000000000000000000 ) ) ;
#122 = CARTESIAN_POINT ( 'NONE',  ( 2.793038542282251975E-14, -11.50000000000001776, 0.0000000000000000000 ) ) ;
#123 = AXIS2_PLACEMENT_3D ( 'NONE', #202, #350, #260 ) ;
#124 = CARTESIAN_POINT ( 'NONE',  ( 3.521521172304756950E-14, -1.500000000000022204, 0.0000000000000000000 ) ) ;
#125 = CIRCLE ( 'NONE', #83, 25.00000000000001776 ) ;
#126 = ORIENTED_EDGE ( 'NONE', *, *, #84, .F. ) ;
#127 = CARTESIAN_POINT ( 'NONE',  ( 3.119331847472293043E-14, -84.86111111111135585, 0.0000000000000000000 ) ) ;
#128 = DIRECTION ( 'NONE',  ( -1.000000000000000000, 7.765004057838344037E-16, 0.0000000000000000000 ) ) ;
#129 = EDGE_CURVE ( 'NONE', #10, #179, #351, .T. ) ;
#130 = CONICAL_SURFACE ( 'NONE', #209, 22.50000000000001421, 0.03490658503988742362 ) ;
#131 = ORIENTED_EDGE ( 'NONE', *, *, #3, .T. ) ;
#132 = FILL_AREA_STYLE_COLOUR ( '', #218 ) ;
#133 = FILL_AREA_STYLE ('',( #269 ) ) ;
#134 = AXIS2_PLACEMENT_3D ( 'NONE', #122, #153, #341 ) ;
#135 = ADVANCED_FACE ( 'NONE', ( #277 ), #59, .F. ) ;
#136 =( NAMED_UNIT ( * ) SI_UNIT ( $, .STERADIAN. ) SOLID_ANGLE_UNIT ( ) );
#137 = CYLINDRICAL_SURFACE ( 'NONE', #290, 25.00000000000002132 ) ;
#138 = EDGE_LOOP ( 'NONE', ( #313, #199 ) ) ;
#139 = APPLICATION_CONTEXT ( 'automotive_design' ) ;
#140 = APPLICATION_CONTEXT ( 'automotive_design' ) ;
#141 = CIRCLE ( 'NONE', #276, 25.00000000000002487 ) ;
#142 = EDGE_LOOP ( 'NONE', ( #66, #6, #126, #143 ) ) ;
#143 = ORIENTED_EDGE ( 'NONE', *, *, #129, .F. ) ;
#144 = AXIS2_PLACEMENT_3D ( 'NONE', #124, #348, #108 ) ;
#145 = DIRECTION ( 'NONE',  ( -1.000000000000000000, 0.0000000000000000000, 0.0000000000000000000 ) ) ;
#146 = CARTESIAN_POINT ( 'NONE',  ( -28.00000000000001066, -1.500000000000001776, 0.0000000000000000000 ) ) ;
#147 = UNCERTAINTY_MEASURE_WITH_UNIT (LENGTH_MEASURE( 1.000000000000000082E-05 ), #109, 'distance_accuracy_value', 'NONE');
#148 = CIRCLE ( 'NONE', #251, 25.00000000000002487 ) ;
#149 = PRODUCT_DEFINITION_SHAPE ( 'NONE', 'NONE',  #44 ) ;
#150 = CIRCLE ( 'NONE', #285, 28.00000000000004263 ) ;
#151 = CARTESIAN_POINT ( 'NONE',  ( -22.49999999999998579, -11.50000000000000178, 2.755455298081546355E-15 ) ) ;
#152 = DIRECTION ( 'NONE',  ( 7.284826300225047977E-16, 1.000000000000000000, -0.0000000000000000000 ) ) ;
#153 = DIRECTION ( 'NONE',  ( 7.284826300225047977E-16, 1.000000000000000000, -0.0000000000000000000 ) ) ;
#154 = AXIS2_PLACEMENT_3D ( 'NONE', #207, #266, #180 ) ;
#155 = DIRECTION ( 'NONE',  ( -1.000000000000000000, 7.970141680194611066E-16, 0.0000000000000000000 ) ) ;
#156 = EDGE_CURVE ( 'NONE', #244, #330, #310, .T. ) ;
#157 = CARTESIAN_POINT ( 'NONE',  ( 3.958610750318261387E-14, 4.500000000000003553, 0.0000000000000000000 ) ) ;
#158 = SURFACE_STYLE_FILL_AREA ( #229 ) ;
#159 = UNCERTAINTY_MEASURE_WITH_UNIT (LENGTH_MEASURE( 1.000000000000000082E-05 ), #300, 'distance_accuracy_value', 'NONE');
#160 = PRESENTATION_LAYER_ASSIGNMENT (  '', '', ( #175 ) ) ;
#161 = DIRECTION ( 'NONE',  ( 1.000000000000000000, -6.938893903907224433E-16, 0.0000000000000000000 ) ) ;
#162 = ADVANCED_FACE ( 'NONE', ( #312 ), #167, .F. ) ;
#163 = CARTESIAN_POINT ( 'NONE',  ( 0.0000000000000000000, 0.0000000000000000000, 0.0000000000000000000 ) ) ;
#164 =( GEOMETRIC_REPRESENTATION_CONTEXT ( 3 ) GLOBAL_UNCERTAINTY_ASSIGNED_CONTEXT ( ( #243 ) ) GLOBAL_UNIT_ASSIGNED_CONTEXT ( ( #5, #34, #329 ) ) REPRESENTATION_CONTEXT ( 'NONE', 'WORKASPACE' ) );
#165 = FACE_OUTER_BOUND ( 'NONE', #268, .T. ) ;
#166 = EDGE_CURVE ( 'NONE', #60, #10, #125, .T. ) ;
#167 = SPHERICAL_SURFACE ( 'NONE', #304, 87.06111111111137291 ) ;
#168 = DIRECTION ( 'NONE',  ( 1.000000000000000000, -7.284826300225047977E-16, 0.0000000000000000000 ) ) ;
#169 = EDGE_CURVE ( 'NONE', #60, #242, #193, .T. ) ;
#170 = ORIENTED_EDGE ( 'NONE', *, *, #129, .T. ) ;
#171 = DIRECTION ( 'NONE',  ( 7.284826300225047977E-16, 1.000000000000000000, -0.0000000000000000000 ) ) ;
#172 = DIRECTION ( 'NONE',  ( 0.03489949670250107328, -0.9993908270190956511, 0.0000000000000000000 ) ) ;
#173 = DIRECTION ( 'NONE',  ( 0.0000000000000000000, 0.0000000000000000000, 1.000000000000000000 ) ) ;
#174 = PRESENTATION_STYLE_ASSIGNMENT (( #208 ) ) ;
#175 = STYLED_ITEM ( 'NONE', ( #226 ), #253 ) ;
#176 = EDGE_LOOP ( 'NONE', ( #280, #214 ) ) ;
#177 = CARTESIAN_POINT ( 'NONE',  ( 9.081954578415493782E-14, 4.500000000000003553, 0.0000000000000000000 ) ) ;
#178 = DIRECTION ( 'NONE',  ( 7.284826300225047977E-16, 1.000000000000000000, -0.0000000000000000000 ) ) ;
#179 = VERTEX_POINT ( 'NONE', #234 ) ;
#180 = DIRECTION ( 'NONE',  ( -1.000000000000000000, 7.302719681754365838E-16, 0.0000000000000000000 ) ) ;
#181 =( GEOMETRIC_REPRESENTATION_CONTEXT ( 3 ) GLOBAL_UNCERTAINTY_ASSIGNED_CONTEXT ( ( #159 ) ) GLOBAL_UNIT_ASSIGNED_CONTEXT ( ( #300, #52, #232 ) ) REPRESENTATION_CONTEXT ( 'NONE', 'WORKASPACE' ) );
#182 = ADVANCED_FACE ( 'NONE', ( #203 ), #97, .F. ) ;
#183 = PLANE ( 'NONE',  #309 ) ;
#184 = CARTESIAN_POINT ( 'NONE',  ( 3.521521172304756950E-14, -1.500000000000022204, 0.0000000000000000000 ) ) ;
#185 = APPLICATION_PROTOCOL_DEFINITION ( 'draft international standard', 'automotive_design', 1998, #140 ) ;
#186 = ORIENTED_EDGE ( 'NONE', *, *, #272, .F. ) ;
#187 = ADVANCED_FACE ( 'NONE', ( #32, #220 ), #183, .T. ) ;
#188 = VECTOR ( 'NONE', #18, 1000.000000000000000 ) ;
#189 = EDGE_LOOP ( 'NONE', ( #231, #250, #279 ) ) ;
#190 = AXIS2_PLACEMENT_3D ( 'NONE', #11, #311, #246 ) ;
#191 = ORIENTED_EDGE ( 'NONE', *, *, #156, .F. ) ;
#192 = DIRECTION ( 'NONE',  ( -0.0000000000000000000, 0.0000000000000000000, -1.000000000000000000 ) ) ;
#193 = LINE ( 'NONE', #72, #45 ) ;
#194 = CARTESIAN_POINT ( 'NONE',  ( 3.630793566808131955E-14, -2.081668171172168513E-14, 0.0000000000000000000 ) ) ;
#195 = VERTEX_POINT ( 'NONE', #177 ) ;
#196 = DIRECTION ( 'NONE',  ( 7.284826300225047977E-16, 1.000000000000000000, -0.0000000000000000000 ) ) ;
#197 = ORIENTED_EDGE ( 'NONE', *, *, #248, .T. ) ;
#198 = DIRECTION ( 'NONE',  ( -7.284826300225047977E-16, -1.000000000000000000, 0.0000000000000000000 ) ) ;
#199 = ORIENTED_EDGE ( 'NONE', *, *, #42, .T. ) ;
#200 = CARTESIAN_POINT ( 'NONE',  ( -28.00000000000000711, -4.191680710915210169E-16, 0.0000000000000000000 ) ) ;
#201 = CARTESIAN_POINT ( 'NONE',  ( 25.00000000000004619, -11.50000000000003375, 3.061616997868385409E-15 ) ) ;
#202 = CARTESIAN_POINT ( 'NONE',  ( 3.630793566808131955E-14, -2.081668171172168513E-14, 0.0000000000000000000 ) ) ;
#203 = FACE_OUTER_BOUND ( 'NONE', #263, .T. ) ;
#204 = ORIENTED_EDGE ( 'NONE', *, *, #166, .F. ) ;
#205 = DIRECTION ( 'NONE',  ( 1.000000000000000000, -7.284826300225047977E-16, 0.0000000000000000000 ) ) ;
#206 = CIRCLE ( 'NONE', #306, 22.50000000000001421 ) ;
#207 = CARTESIAN_POINT ( 'NONE',  ( 3.582910618205776934E-14, -0.6572970532032771374, 0.0000000000000000000 ) ) ;
#208 = SURFACE_STYLE_USAGE ( .BOTH. , #328 ) ;
#209 = AXIS2_PLACEMENT_3D ( 'NONE', #305, #237, #161 ) ;
#210 = DIRECTION ( 'NONE',  ( 1.000000000000000000, 0.0000000000000000000, 0.0000000000000000000 ) ) ;
#211 = CYLINDRICAL_SURFACE ( 'NONE', #278, 25.00000000000002132 ) ;
#212 = EDGE_LOOP ( 'NONE', ( #186, #323, #105, #35 ) ) ;
#213 = EDGE_CURVE ( 'NONE', #17, #267, #334, .T. ) ;
#214 = ORIENTED_EDGE ( 'NONE', *, *, #258, .F. ) ;
#215 = DIRECTION ( 'NONE',  ( -1.000000000000000000, 7.434529182757732576E-16, 0.0000000000000000000 ) ) ;
#216 = DIRECTION ( 'NONE',  ( 7.284826300225047977E-16, 1.000000000000000000, -0.0000000000000000000 ) ) ;
#217 = SHAPE_DEFINITION_REPRESENTATION ( #149, #335 ) ;
#218 = COLOUR_RGB ( '',0.7529411764705882248, 0.7529411764705882248, 0.7529411764705882248 ) ;
#219 = EDGE_CURVE ( 'NONE', #115, #87, #119, .T. ) ;
#220 = FACE_OUTER_BOUND ( 'NONE', #176, .T. ) ;
#221 = DIRECTION ( 'NONE',  ( 7.284826300225047977E-16, 1.000000000000000000, -0.0000000000000000000 ) ) ;
#222 = CIRCLE ( 'NONE', #241, 89.36111111111137006 ) ;
#223 = CARTESIAN_POINT ( 'NONE',  ( 22.12136446972749582, -0.6572970532032985647, 2.709085819062365817E-15 ) ) ;
#224 = DIRECTION ( 'NONE',  ( -1.000000000000000000, 7.285838599102583880E-16, 0.0000000000000000000 ) ) ;
#225 =( GEOMETRIC_REPRESENTATION_CONTEXT ( 3 ) GLOBAL_UNCERTAINTY_ASSIGNED_CONTEXT ( ( #147 ) ) GLOBAL_UNIT_ASSIGNED_CONTEXT ( ( #109, #2, #136 ) ) REPRESENTATION_CONTEXT ( 'NONE', 'WORKASPACE' ) );
#226 = PRESENTATION_STYLE_ASSIGNMENT (( #26 ) ) ;
#227 = DIRECTION ( 'NONE',  ( 7.284826300225047977E-16, 1.000000000000000000, -0.0000000000000000000 ) ) ;
#228 = ORIENTED_EDGE ( 'NONE', *, *, #84, .T. ) ;
#229 = FILL_AREA_STYLE ('',( #132 ) ) ;
#230 = LINE ( 'NONE', #41, #92 ) ;
#231 = ORIENTED_EDGE ( 'NONE', *, *, #219, .T. ) ;
#232 =( NAMED_UNIT ( * ) SI_UNIT ( $, .STERADIAN. ) SOLID_ANGLE_UNIT ( ) );
#233 = MECHANICAL_DESIGN_GEOMETRIC_PRESENTATION_REPRESENTATION (  '', ( #175 ), #181 ) ;
#234 = CARTESIAN_POINT ( 'NONE',  ( -24.99999999999998934, -1.500000000000000444, 0.0000000000000000000 ) ) ;
#235 = EDGE_CURVE ( 'NONE', #86, #244, #262, .T. ) ;
#236 = VECTOR ( 'NONE', #343, 1000.000000000000000 ) ;
#237 = DIRECTION ( 'NONE',  ( -7.284826300225047977E-16, -1.000000000000000000, 0.0000000000000000000 ) ) ;
#238 = EDGE_LOOP ( 'NONE', ( #73, #331, #110, #36 ) ) ;
#239 = AXIS2_PLACEMENT_3D ( 'NONE', #259, #198, #94 ) ;
#240 = VECTOR ( 'NONE', #178, 1000.000000000000000 ) ;
#241 = AXIS2_PLACEMENT_3D ( 'NONE', #117, #192, #145 ) ;
#242 = VERTEX_POINT ( 'NONE', #30 ) ;
#243 = UNCERTAINTY_MEASURE_WITH_UNIT (LENGTH_MEASURE( 1.000000000000000082E-05 ), #5, 'distance_accuracy_value', 'NONE');
#244 = VERTEX_POINT ( 'NONE', #101 ) ;
#245 = ORIENTED_EDGE ( 'NONE', *, *, #235, .T. ) ;
#246 = DIRECTION ( 'NONE',  ( 1.000000000000000000, 0.0000000000000000000, 1.224646799147352961E-16 ) ) ;
#247 = EDGE_LOOP ( 'NONE', ( #340, #49, #170, #1 ) ) ;
#248 = EDGE_CURVE ( 'NONE', #244, #47, #249, .T. ) ;
#249 = CIRCLE ( 'NONE', #88, 87.06111111111137291 ) ;
#250 = ORIENTED_EDGE ( 'NONE', *, *, #292, .T. ) ;
#251 = AXIS2_PLACEMENT_3D ( 'NONE', #58, #275, #85 ) ;
#252 = CARTESIAN_POINT ( 'NONE',  ( 22.50000000000003908, -11.50000000000003197, 0.0000000000000000000 ) ) ;
#253 = MANIFOLD_SOLID_BREP ( 'Revolve1', #37 ) ;
#254 = CARTESIAN_POINT ( 'NONE',  ( 28.00000000000007816, -4.121419535235185221E-14, 3.429011037612594009E-15 ) ) ;
#255 = AXIS2_PLACEMENT_3D ( 'NONE', #289, #21, #75 ) ;
#256 = CARTESIAN_POINT ( 'NONE',  ( 2.793038542282251975E-14, -11.50000000000001776, 0.0000000000000000000 ) ) ;
#257 = ORIENTED_EDGE ( 'NONE', *, *, #42, .F. ) ;
#258 = EDGE_CURVE ( 'NONE', #267, #17, #113, .T. ) ;
#259 = CARTESIAN_POINT ( 'NONE',  ( 2.793038542282251975E-14, -11.50000000000001776, 0.0000000000000000000 ) ) ;
#260 = DIRECTION ( 'NONE',  ( -1.000000000000000000, 7.284826300225046991E-16, 0.0000000000000000000 ) ) ;
#261 = AXIS2_PLACEMENT_3D ( 'NONE', #295, #24, #155 ) ;
#262 = CIRCLE ( 'NONE', #154, 22.12136446972742121 ) ;
#263 = EDGE_LOOP ( 'NONE', ( #326, #62, #197 ) ) ;
#264 = AXIS2_PLACEMENT_3D ( 'NONE', #91, #89, #168 ) ;
#265 = DIRECTION ( 'NONE',  ( -0.0000000000000000000, 0.0000000000000000000, -1.000000000000000000 ) ) ;
#266 = DIRECTION ( 'NONE',  ( 7.284826300225047977E-16, 1.000000000000000000, -0.0000000000000000000 ) ) ;
#267 = VERTEX_POINT ( 'NONE', #106 ) ;
#268 = EDGE_LOOP ( 'NONE', ( #116, #204 ) ) ;
#269 = FILL_AREA_STYLE_COLOUR ( '', #55 ) ;
#270 = ADVANCED_FACE ( 'NONE', ( #307 ), #321, .T. ) ;
#271 = PRODUCT_CONTEXT ( 'NONE', #139, 'mechanical' ) ;
#272 = EDGE_CURVE ( 'NONE', #267, #87, #90, .T. ) ;
#273 = SPHERICAL_SURFACE ( 'NONE', #38, 89.36111111111137006 ) ;
#274 = ORIENTED_EDGE ( 'NONE', *, *, #346, .T. ) ;
#275 = DIRECTION ( 'NONE',  ( 7.284826300225047977E-16, 1.000000000000000000, -0.0000000000000000000 ) ) ;
#276 = AXIS2_PLACEMENT_3D ( 'NONE', #98, #152, #286 ) ;
#277 = FACE_OUTER_BOUND ( 'NONE', #287, .T. ) ;
#278 = AXIS2_PLACEMENT_3D ( 'NONE', #157, #79, #112 ) ;
#279 = ORIENTED_EDGE ( 'NONE', *, *, #9, .F. ) ;
#280 = ORIENTED_EDGE ( 'NONE', *, *, #213, .F. ) ;
#281 = CARTESIAN_POINT ( 'NONE',  ( 3.958610750318261387E-14, 4.500000000000003553, 0.0000000000000000000 ) ) ;
#282 = CYLINDRICAL_SURFACE ( 'NONE', #255, 28.00000000000004619 ) ;
#283 = EDGE_LOOP ( 'NONE', ( #228, #274 ) ) ;
#284 = AXIS2_PLACEMENT_3D ( 'NONE', #96, #171, #318 ) ;
#285 = AXIS2_PLACEMENT_3D ( 'NONE', #194, #13, #43 ) ;
#286 = DIRECTION ( 'NONE',  ( -1.000000000000000000, 7.285838599102582894E-16, 0.0000000000000000000 ) ) ;
#287 = EDGE_LOOP ( 'NONE', ( #245, #19, #70, #81 ) ) ;
#288 = CARTESIAN_POINT ( 'NONE',  ( 2.793038542282251975E-14, -11.50000000000001776, 0.0000000000000000000 ) ) ;
#289 = CARTESIAN_POINT ( 'NONE',  ( 3.958610750318261387E-14, 4.500000000000003553, 0.0000000000000000000 ) ) ;
#290 = AXIS2_PLACEMENT_3D ( 'NONE', #281, #67, #224 ) ;
#291 = CIRCLE ( 'NONE', #99, 89.36111111111137006 ) ;
#292 = EDGE_CURVE ( 'NONE', #87, #195, #291, .T. ) ;
#293 = DIRECTION ( 'NONE',  ( 0.0000000000000000000, 0.0000000000000000000, 1.000000000000000000 ) ) ;
#294 = ADVANCED_FACE ( 'NONE', ( #104 ), #211, .T. ) ;
#295 = CARTESIAN_POINT ( 'NONE',  ( 3.119331847472293043E-14, -84.86111111111135585, 0.0000000000000000000 ) ) ;
#296 = EDGE_LOOP ( 'NONE', ( #352, #317, #56 ) ) ;
#297 = CARTESIAN_POINT ( 'NONE',  ( 28.00000000000008527, 4.499999999999983125, 3.429011037612594404E-15 ) ) ;
#298 = ORIENTED_EDGE ( 'NONE', *, *, #248, .F. ) ;
#299 = MECHANICAL_DESIGN_GEOMETRIC_PRESENTATION_REPRESENTATION (  '', ( #7 ), #164 ) ;
#300 =( LENGTH_UNIT ( ) NAMED_UNIT ( * ) SI_UNIT ( .MILLI., .METRE. ) );
#301 = CARTESIAN_POINT ( 'NONE',  ( -22.49999999999998579, -11.50000000000000178, 2.755455298081546355E-15 ) ) ;
#302 = DIRECTION ( 'NONE',  ( 1.000000000000000000, 0.0000000000000000000, 1.224646799147353207E-16 ) ) ;
#303 = CIRCLE ( 'NONE', #134, 25.00000000000001776 ) ;
#304 = AXIS2_PLACEMENT_3D ( 'NONE', #95, #173, #20 ) ;
#305 = CARTESIAN_POINT ( 'NONE',  ( 2.793038542282251975E-14, -11.50000000000001776, 0.0000000000000000000 ) ) ;
#306 = AXIS2_PLACEMENT_3D ( 'NONE', #256, #221, #121 ) ;
#307 = FACE_OUTER_BOUND ( 'NONE', #296, .T. ) ;
#308 = FACE_OUTER_BOUND ( 'NONE', #212, .T. ) ;
#309 = AXIS2_PLACEMENT_3D ( 'NONE', #82, #319, #205 ) ;
#310 = LINE ( 'NONE', #151, #236 ) ;
#311 = DIRECTION ( 'NONE',  ( -1.224646799147353207E-16, 8.921339210915059975E-32, 1.000000000000000000 ) ) ;
#312 = FACE_OUTER_BOUND ( 'NONE', #100, .T. ) ;
#313 = ORIENTED_EDGE ( 'NONE', *, *, #61, .T. ) ;
#314 = DIRECTION ( 'NONE',  ( -1.000000000000000000, 7.765004057838344037E-16, 0.0000000000000000000 ) ) ;
#315 = CARTESIAN_POINT ( 'NONE',  ( 3.119331847472293043E-14, -84.86111111111135585, 0.0000000000000000000 ) ) ;
#316 = PRODUCT_DEFINITION_CONTEXT ( 'detailed design', #140, 'design' ) ;
#317 = ORIENTED_EDGE ( 'NONE', *, *, #15, .T. ) ;
#318 = DIRECTION ( 'NONE',  ( -1.000000000000000000, 7.302719681754365838E-16, 0.0000000000000000000 ) ) ;
#319 = DIRECTION ( 'NONE',  ( -7.284826300225047977E-16, -1.000000000000000000, 0.0000000000000000000 ) ) ;
#320 = AXIS2_PLACEMENT_3D ( 'NONE', #184, #103, #349 ) ;
#321 = SPHERICAL_SURFACE ( 'NONE', #333, 89.36111111111137006 ) ;
#322 = ADVANCED_FACE ( 'NONE', ( #27 ), #130, .F. ) ;
#323 = ORIENTED_EDGE ( 'NONE', *, *, #258, .T. ) ;
#324 = CARTESIAN_POINT ( 'NONE',  ( 3.119331847472293043E-14, -84.86111111111135585, 0.0000000000000000000 ) ) ;
#325 = DIRECTION ( 'NONE',  ( 7.284826300225047977E-16, 1.000000000000000000, -0.0000000000000000000 ) ) ;
#326 = ORIENTED_EDGE ( 'NONE', *, *, #3, .F. ) ;
#327 = PRODUCT_RELATED_PRODUCT_CATEGORY ( 'part', '', ( #46 ) ) ;
#328 = SURFACE_SIDE_STYLE ('',( #51 ) ) ;
#329 =( NAMED_UNIT ( * ) SI_UNIT ( $, .STERADIAN. ) SOLID_ANGLE_UNIT ( ) );
#330 = VERTEX_POINT ( 'NONE', #301 ) ;
#331 = ORIENTED_EDGE ( 'NONE', *, *, #272, .T. ) ;
#332 = CARTESIAN_POINT ( 'NONE',  ( 8.928487011700511760E-14, 2.200000000000007283, 0.0000000000000000000 ) ) ;
#333 = AXIS2_PLACEMENT_3D ( 'NONE', #54, #293, #128 ) ;
#334 = CIRCLE ( 'NONE', #144, 28.00000000000004619 ) ;
#335 = ADVANCED_BREP_SHAPE_REPRESENTATION ( '2033032_KSTP1', ( #253, #25 ), #225 ) ;
#336 = CARTESIAN_POINT ( 'NONE',  ( 3.958610750318261387E-14, 4.500000000000003553, 0.0000000000000000000 ) ) ;
#337 = PLANE ( 'NONE',  #264 ) ;
#338 = AXIS2_PLACEMENT_3D ( 'NONE', #336, #39, #215 ) ;
#339 = CARTESIAN_POINT ( 'NONE',  ( -24.99999999999998579, 4.500000000000022204, 0.0000000000000000000 ) ) ;
#340 = ORIENTED_EDGE ( 'NONE', *, *, #169, .F. ) ;
#341 = DIRECTION ( 'NONE',  ( -1.000000000000000000, 6.938893903907223447E-16, 0.0000000000000000000 ) ) ;
#342 = EDGE_LOOP ( 'NONE', ( #191, #63, #347, #257 ) ) ;
#343 = DIRECTION ( 'NONE',  ( -0.03489949670250253044, -0.9993908270190956511, 4.273955692857244260E-18 ) ) ;
#344 = DIRECTION ( 'NONE',  ( -1.000000000000000000, 0.0000000000000000000, 0.0000000000000000000 ) ) ;
#345 = CIRCLE ( 'NONE', #284, 22.12136446972742121 ) ;
#346 = EDGE_CURVE ( 'NONE', #242, #179, #148, .T. ) ;
#347 = ORIENTED_EDGE ( 'NONE', *, *, #120, .T. ) ;
#348 = DIRECTION ( 'NONE',  ( 7.284826300225047977E-16, 1.000000000000000000, -0.0000000000000000000 ) ) ;
#349 = DIRECTION ( 'NONE',  ( -1.000000000000000000, 7.279643158116945946E-16, 0.0000000000000000000 ) ) ;
#350 = DIRECTION ( 'NONE',  ( 7.284826300225047977E-16, 1.000000000000000000, -0.0000000000000000000 ) ) ;
#351 = LINE ( 'NONE', #339, #188 ) ;
#352 = ORIENTED_EDGE ( 'NONE', *, *, #292, .F. ) ;
ENDSEC;
END-ISO-10303-21;
