ISO-10303-21;
HEADER;
FILE_DESCRIPTION (( 'STEP AP214' ),
    '1' );
FILE_NAME ('2029520_KSTP1.stp',
    '2018-09-10T11:59:27',
    ( '' ),
    ( '' ),
    'SwSTEP 2.0',
    'SolidWorks 2016',
    '' );
FILE_SCHEMA (( 'AUTOMOTIVE_DESIGN' ));
ENDSEC;

DATA;
#1 = DIRECTION ( 'NONE',  ( 0.0000000000000000000, 0.0000000000000000000, 1.000000000000000000 ) ) ;
#2 = AXIS2_PLACEMENT_3D ( 'NONE', #110, #139, #293 ) ;
#3 = CARTESIAN_POINT ( 'NONE',  ( 4.196966634577891400E-015, -16.27083333333320400, 0.0000000000000000000 ) ) ;
#4 = ORIENTED_EDGE ( 'NONE', *, *, #23, .T. ) ;
#5 = CIRCLE ( 'NONE', #164, 10.25000000000000200 ) ;
#6 = PRESENTATION_LAYER_ASSIGNMENT (  '', '', ( #383 ) ) ;
#7 = PRODUCT_DEFINITION_SHAPE ( 'NONE', 'NONE',  #387 ) ;
#8 = PRODUCT_DEFINITION_FORMATION_WITH_SPECIFIED_SOURCE ( 'ANY', '', #11, .NOT_KNOWN. ) ;
#9 = DIRECTION ( 'NONE',  ( 0.0000000000000000000, 0.0000000000000000000, 1.000000000000000000 ) ) ;
#10 = EDGE_CURVE ( 'NONE', #349, #100, #155, .T. ) ;
#11 = PRODUCT ( '2029520_KSTP1', '2029520_KSTP1', '', ( #93 ) ) ;
#12 = CARTESIAN_POINT ( 'NONE',  ( 1.084202172485504400E-016, 0.0000000000000000000, 0.0000000000000000000 ) ) ;
#13 = ORIENTED_EDGE ( 'NONE', *, *, #43, .F. ) ;
#14 = CIRCLE ( 'NONE', #216, 8.000000000000001800 ) ;
#15 = ADVANCED_FACE ( 'NONE', ( #88 ), #265, .T. ) ;
#16 = CARTESIAN_POINT ( 'NONE',  ( 1.084202172485504400E-016, 0.0000000000000000000, 0.0000000000000000000 ) ) ;
#17 = CARTESIAN_POINT ( 'NONE',  ( -1.370334062354562200E-015, 18.01253266284296800, 0.0000000000000000000 ) ) ;
#18 = EDGE_CURVE ( 'NONE', #118, #317, #206, .T. ) ;
#19 = DIRECTION ( 'NONE',  ( -8.209585555137123600E-017, 1.000000000000000000, -0.0000000000000000000 ) ) ;
#20 = CIRCLE ( 'NONE', #210, 10.25000000000000500 ) ;
#21 = SPHERICAL_SURFACE ( 'NONE', #381, 34.97083333333320400 ) ;
#22 = DIRECTION ( 'NONE',  ( -8.209585555137123600E-017, 1.000000000000000000, -0.0000000000000000000 ) ) ;
#23 = EDGE_CURVE ( 'NONE', #138, #359, #365, .T. ) ;
#24 = FILL_AREA_STYLE ('',( #390 ) ) ;
#25 = ORIENTED_EDGE ( 'NONE', *, *, #235, .F. ) ;
#26 = CARTESIAN_POINT ( 'NONE',  ( -5.577149385419189200E-017, 1.999999999999998200, 0.0000000000000000000 ) ) ;
#27 = AXIS2_PLACEMENT_3D ( 'NONE', #137, #147, #150 ) ;
#28 = FACE_OUTER_BOUND ( 'NONE', #241, .T. ) ;
#29 = CIRCLE ( 'NONE', #63, 10.25000000000000500 ) ;
#30 = LINE ( 'NONE', #327, #242 ) ;
#31 = SURFACE_SIDE_STYLE ('',( #40 ) ) ;
#32 =( GEOMETRIC_REPRESENTATION_CONTEXT ( 3 ) GLOBAL_UNCERTAINTY_ASSIGNED_CONTEXT ( ( #219 ) ) GLOBAL_UNIT_ASSIGNED_CONTEXT ( ( #64, #401, #181 ) ) REPRESENTATION_CONTEXT ( 'NONE', 'WORKASPACE' ) );
#33 = DIRECTION ( 'NONE',  ( -8.209585555137123600E-017, 1.000000000000000000, -0.0000000000000000000 ) ) ;
#34 = DIRECTION ( 'NONE',  ( -1.000000000000000000, 0.0000000000000000000, 0.0000000000000000000 ) ) ;
#35 = SURFACE_STYLE_FILL_AREA ( #24 ) ;
#36 = PRODUCT_RELATED_PRODUCT_CATEGORY ( 'part', '', ( #11 ) ) ;
#37 = ORIENTED_EDGE ( 'NONE', *, *, #18, .F. ) ;
#38 = DIRECTION ( 'NONE',  ( 1.000000000000000000, 0.0000000000000000000, 0.0000000000000000000 ) ) ;
#39 = CARTESIAN_POINT ( 'NONE',  ( 6.900000000000001200, 5.664614033044617000E-016, 8.450062914116739600E-016 ) ) ;
#40 = SURFACE_STYLE_FILL_AREA ( #207 ) ;
#41 = FACE_BOUND ( 'NONE', #126, .T. ) ;
#42 = AXIS2_PLACEMENT_3D ( 'NONE', #157, #184, #211 ) ;
#43 = EDGE_CURVE ( 'NONE', #100, #118, #173, .T. ) ;
#44 = ORIENTED_EDGE ( 'NONE', *, *, #213, .T. ) ;
#45 = ORIENTED_EDGE ( 'NONE', *, *, #275, .F. ) ;
#46 = CARTESIAN_POINT ( 'NONE',  ( 4.196966634577891400E-015, -16.27083333333320400, 0.0000000000000000000 ) ) ;
#47 = FACE_OUTER_BOUND ( 'NONE', #386, .T. ) ;
#48 = EDGE_CURVE ( 'NONE', #321, #223, #5, .T. ) ;
#49 = CARTESIAN_POINT ( 'NONE',  ( -1.426772281562091400E-015, 18.69999999999999900, 0.0000000000000000000 ) ) ;
#50 = CARTESIAN_POINT ( 'NONE',  ( -10.25000000000001100, 17.99999999999999300, -1.255262969126038400E-015 ) ) ;
#51 = AXIS2_PLACEMENT_3D ( 'NONE', #146, #1, #373 ) ;
#52 = ORIENTED_EDGE ( 'NONE', *, *, #18, .T. ) ;
#53 = ORIENTED_EDGE ( 'NONE', *, *, #145, .T. ) ;
#54 = CARTESIAN_POINT ( 'NONE',  ( -10.25000000000000500, 18.69999999999999900, 0.0000000000000000000 ) ) ;
#55 = CARTESIAN_POINT ( 'NONE',  ( 4.196966634577891400E-015, -16.27083333333320400, 0.0000000000000000000 ) ) ;
#56 = ORIENTED_EDGE ( 'NONE', *, *, #156, .F. ) ;
#57 = CARTESIAN_POINT ( 'NONE',  ( 10.25000000000000200, 18.69999999999999900, 1.255262969126037400E-015 ) ) ;
#58 =( NAMED_UNIT ( * ) SI_UNIT ( $, .STERADIAN. ) SOLID_ANGLE_UNIT ( ) );
#59 =( NAMED_UNIT ( * ) SI_UNIT ( $, .STERADIAN. ) SOLID_ANGLE_UNIT ( ) );
#60 = EDGE_LOOP ( 'NONE', ( #199, #377, #371, #400 ) ) ;
#61 = DIRECTION ( 'NONE',  ( -1.000000000000000000, -1.084202172485504200E-016, 0.0000000000000000000 ) ) ;
#62 = CARTESIAN_POINT ( 'NONE',  ( -1.123017616022017900E-015, 15.00000000000000000, 0.0000000000000000000 ) ) ;
#63 = AXIS2_PLACEMENT_3D ( 'NONE', #143, #232, #301 ) ;
#64 =( LENGTH_UNIT ( ) NAMED_UNIT ( * ) SI_UNIT ( .MILLI., .METRE. ) );
#65 = ORIENTED_EDGE ( 'NONE', *, *, #92, .F. ) ;
#66 = PRESENTATION_STYLE_ASSIGNMENT (( #208 ) ) ;
#67 = FACE_OUTER_BOUND ( 'NONE', #204, .T. ) ;
#68 = SURFACE_STYLE_USAGE ( .BOTH. , #31 ) ;
#69 = AXIS2_PLACEMENT_3D ( 'NONE', #131, #343, #374 ) ;
#70 = ORIENTED_EDGE ( 'NONE', *, *, #288, .F. ) ;
#71 = DIRECTION ( 'NONE',  ( -8.209585555137123600E-017, 1.000000000000000000, 0.0000000000000000000 ) ) ;
#72 = CIRCLE ( 'NONE', #101, 35.77083333333320100 ) ;
#73 = AXIS2_PLACEMENT_3D ( 'NONE', #49, #255, #229 ) ;
#74 = VECTOR ( 'NONE', #245, 1000.000000000000000 ) ;
#75 = DIRECTION ( 'NONE',  ( -1.000000000000000000, -8.209585555137124800E-017, 0.0000000000000000000 ) ) ;
#76 = ADVANCED_FACE ( 'NONE', ( #326 ), #304, .T. ) ;
#77 = ORIENTED_EDGE ( 'NONE', *, *, #286, .F. ) ;
#78 = DIRECTION ( 'NONE',  ( -8.209585555137123600E-017, 1.000000000000000000, -0.0000000000000000000 ) ) ;
#79 = SPHERICAL_SURFACE ( 'NONE', #233, 35.77083333333320100 ) ;
#80 = DIRECTION ( 'NONE',  ( -1.000000000000000000, 0.0000000000000000000, -1.224646799147353200E-016 ) ) ;
#81 = DIRECTION ( 'NONE',  ( 1.000000000000000000, 9.699094565741064800E-017, 0.0000000000000000000 ) ) ;
#82 = AXIS2_PLACEMENT_3D ( 'NONE', #55, #258, #264 ) ;
#83 = ORIENTED_EDGE ( 'NONE', *, *, #191, .F. ) ;
#84 = EDGE_CURVE ( 'NONE', #254, #308, #128, .T. ) ;
#85 = CARTESIAN_POINT ( 'NONE',  ( -6.900000000000004800, 18.01253266284296800, 0.0000000000000000000 ) ) ;
#86 = CARTESIAN_POINT ( 'NONE',  ( 10.25000000000000000, 15.00000000000000000, 1.255262969126037200E-015 ) ) ;
#87 = DIRECTION ( 'NONE',  ( -1.000000000000000000, 0.0000000000000000000, 0.0000000000000000000 ) ) ;
#88 = FACE_OUTER_BOUND ( 'NONE', #248, .T. ) ;
#89 = UNCERTAINTY_MEASURE_WITH_UNIT (LENGTH_MEASURE( 1.000000000000000100E-005 ), #119, 'distance_accuracy_value', 'NONE');
#90 = CARTESIAN_POINT ( 'NONE',  ( 7.350000000000003200, 6.034045383025787800E-016, 9.001153973733051500E-016 ) ) ;
#91 = DIRECTION ( 'NONE',  ( -1.000000000000000000, -8.209585555137122300E-017, 0.0000000000000000000 ) ) ;
#92 = EDGE_CURVE ( 'NONE', #359, #388, #380, .T. ) ;
#93 = PRODUCT_CONTEXT ( 'NONE', #122, 'mechanical' ) ;
#94 = CARTESIAN_POINT ( 'NONE',  ( -7.350000000000003200, -6.034045383025787800E-016, 0.0000000000000000000 ) ) ;
#95 = DIRECTION ( 'NONE',  ( -1.000000000000000000, 0.0000000000000000000, -1.224646799147353000E-016 ) ) ;
#96 = FACE_OUTER_BOUND ( 'NONE', #148, .T. ) ;
#97 = EDGE_LOOP ( 'NONE', ( #25, #214, #295, #124 ) ) ;
#98 = VECTOR ( 'NONE', #78, 1000.000000000000000 ) ;
#99 = DIRECTION ( 'NONE',  ( 0.0000000000000000000, 0.0000000000000000000, 1.000000000000000000 ) ) ;
#100 = VERTEX_POINT ( 'NONE', #135 ) ;
#101 = AXIS2_PLACEMENT_3D ( 'NONE', #358, #298, #80 ) ;
#102 = VECTOR ( 'NONE', #313, 1000.000000000000000 ) ;
#103 = ADVANCED_FACE ( 'NONE', ( #395 ), #226, .T. ) ;
#104 = LINE ( 'NONE', #90, #348 ) ;
#105 = ORIENTED_EDGE ( 'NONE', *, *, #391, .F. ) ;
#106 = ADVANCED_FACE ( 'NONE', ( #67 ), #339, .F. ) ;
#107 = ORIENTED_EDGE ( 'NONE', *, *, #113, .T. ) ;
#108 = DIRECTION ( 'NONE',  ( 1.000000000000000000, 9.920973054555826800E-017, 0.0000000000000000000 ) ) ;
#109 = AXIS2_PLACEMENT_3D ( 'NONE', #3, #188, #108 ) ;
#110 = CARTESIAN_POINT ( 'NONE',  ( -1.426772281562091400E-015, 18.69999999999999900, 0.0000000000000000000 ) ) ;
#111 = CONICAL_SURFACE ( 'NONE', #278, 7.350000000000003200, 0.3142318990843379600 ) ;
#112 = DIRECTION ( 'NONE',  ( -1.000000000000000000, -1.084202172485504200E-016, 0.0000000000000000000 ) ) ;
#113 = EDGE_CURVE ( 'NONE', #138, #250, #186, .T. ) ;
#114 = ADVANCED_FACE ( 'NONE', ( #47 ), #21, .F. ) ;
#115 = CARTESIAN_POINT ( 'NONE',  ( -5.577149385419189200E-017, 1.999999999999998200, 0.0000000000000000000 ) ) ;
#116 = DIRECTION ( 'NONE',  ( -1.000000000000000000, -8.209585555137122300E-017, 0.0000000000000000000 ) ) ;
#117 = DIRECTION ( 'NONE',  ( -8.209585555137123600E-017, 1.000000000000000000, -0.0000000000000000000 ) ) ;
#118 = VERTEX_POINT ( 'NONE', #218 ) ;
#119 =( LENGTH_UNIT ( ) NAMED_UNIT ( * ) SI_UNIT ( .MILLI., .METRE. ) );
#120 = CIRCLE ( 'NONE', #398, 7.350000000000003200 ) ;
#121 = CARTESIAN_POINT ( 'NONE',  ( 3.467352107992593800E-015, 18.69999999999999900, 0.0000000000000000000 ) ) ;
#122 = APPLICATION_CONTEXT ( 'automotive_design' ) ;
#123 = MECHANICAL_DESIGN_GEOMETRIC_PRESENTATION_REPRESENTATION (  '', ( #174 ), #296 ) ;
#124 = ORIENTED_EDGE ( 'NONE', *, *, #299, .F. ) ;
#125 = ORIENTED_EDGE ( 'NONE', *, *, #84, .F. ) ;
#126 = EDGE_LOOP ( 'NONE', ( #302, #107 ) ) ;
#127 = ORIENTED_EDGE ( 'NONE', *, *, #257, .T. ) ;
#128 = CIRCLE ( 'NONE', #224, 35.77083333333320100 ) ;
#129 = CARTESIAN_POINT ( 'NONE',  ( -1.426772281562091400E-015, 18.69999999999999900, 0.0000000000000000000 ) ) ;
#130 = AXIS2_PLACEMENT_3D ( 'NONE', #12, #323, #75 ) ;
#131 = CARTESIAN_POINT ( 'NONE',  ( -1.426772281562091400E-015, 18.69999999999999900, 0.0000000000000000000 ) ) ;
#132 = AXIS2_PLACEMENT_3D ( 'NONE', #165, #230, #163 ) ;
#133 = ORIENTED_EDGE ( 'NONE', *, *, #10, .T. ) ;
#134 = ADVANCED_FACE ( 'NONE', ( #217 ), #256, .F. ) ;
#135 = CARTESIAN_POINT ( 'NONE',  ( -8.000000000000001800, 1.999999999999997800, 0.0000000000000000000 ) ) ;
#136 = PRODUCT_DEFINITION_CONTEXT ( 'detailed design', #215, 'design' ) ;
#137 = CARTESIAN_POINT ( 'NONE',  ( 6.900000000000001200, 1.805335373623863500E-016, 0.0000000000000000000 ) ) ;
#138 = VERTEX_POINT ( 'NONE', #39 ) ;
#139 = DIRECTION ( 'NONE',  ( -8.209585555137123600E-017, 1.000000000000000000, -0.0000000000000000000 ) ) ;
#140 = DIRECTION ( 'NONE',  ( -8.209585555137123600E-017, 1.000000000000000000, -0.0000000000000000000 ) ) ;
#141 = AXIS2_PLACEMENT_3D ( 'NONE', #205, #33, #397 ) ;
#142 = CARTESIAN_POINT ( 'NONE',  ( -10.25000000000000400, 15.00000000000000000, 0.0000000000000000000 ) ) ;
#143 = CARTESIAN_POINT ( 'NONE',  ( -1.369305182676131000E-015, 17.99999999999999300, 0.0000000000000000000 ) ) ;
#144 = ORIENTED_EDGE ( 'NONE', *, *, #364, .F. ) ;
#145 = EDGE_CURVE ( 'NONE', #254, #225, #20, .T. ) ;
#146 = CARTESIAN_POINT ( 'NONE',  ( 0.0000000000000000000, 0.0000000000000000000, 0.0000000000000000000 ) ) ;
#147 = DIRECTION ( 'NONE',  ( -8.209585555137123600E-017, 1.000000000000000000, 0.0000000000000000000 ) ) ;
#148 = EDGE_LOOP ( 'NONE', ( #203, #284, #37, #13 ) ) ;
#149 = EDGE_LOOP ( 'NONE', ( #344, #363, #294, #337 ) ) ;
#150 = DIRECTION ( 'NONE',  ( -1.000000000000000000, -8.209585555137123600E-017, 0.0000000000000000000 ) ) ;
#151 = SPHERICAL_SURFACE ( 'NONE', #82, 35.77083333333320100 ) ;
#152 = AXIS2_PLACEMENT_3D ( 'NONE', #16, #234, #116 ) ;
#153 = DIRECTION ( 'NONE',  ( -0.3090860723375578600, 0.9510340687309482000, 0.0000000000000000000 ) ) ;
#154 = ORIENTED_EDGE ( 'NONE', *, *, #257, .F. ) ;
#155 = LINE ( 'NONE', #94, #289 ) ;
#156 = EDGE_CURVE ( 'NONE', #376, #388, #328, .T. ) ;
#157 = CARTESIAN_POINT ( 'NONE',  ( -1.426772281562091400E-015, 18.69999999999999900, 0.0000000000000000000 ) ) ;
#158 = VECTOR ( 'NONE', #271, 1000.000000000000000 ) ;
#159 = VERTEX_POINT ( 'NONE', #253 ) ;
#160 = DIRECTION ( 'NONE',  ( -8.209585555137123600E-017, 1.000000000000000000, -0.0000000000000000000 ) ) ;
#161 =( GEOMETRIC_REPRESENTATION_CONTEXT ( 3 ) GLOBAL_UNCERTAINTY_ASSIGNED_CONTEXT ( ( #335 ) ) GLOBAL_UNIT_ASSIGNED_CONTEXT ( ( #309, #366, #58 ) ) REPRESENTATION_CONTEXT ( 'NONE', 'WORKASPACE' ) );
#162 = CIRCLE ( 'NONE', #152, 7.350000000000003200 ) ;
#163 = DIRECTION ( 'NONE',  ( -1.000000000000000000, -8.209585555137124800E-017, 0.0000000000000000000 ) ) ;
#164 = AXIS2_PLACEMENT_3D ( 'NONE', #196, #160, #283 ) ;
#165 = CARTESIAN_POINT ( 'NONE',  ( 1.084202172485504400E-016, 0.0000000000000000000, 0.0000000000000000000 ) ) ;
#166 = ADVANCED_FACE ( 'NONE', ( #171, #280 ), #382, .F. ) ;
#167 = CARTESIAN_POINT ( 'NONE',  ( 1.084202172485504400E-016, 0.0000000000000000000, 0.0000000000000000000 ) ) ;
#168 = EDGE_CURVE ( 'NONE', #250, #138, #322, .T. ) ;
#169 = COLOUR_RGB ( '',0.7529411764705882200, 0.7529411764705882200, 0.7529411764705882200 ) ;
#170 = ORIENTED_EDGE ( 'NONE', *, *, #182, .T. ) ;
#171 = FACE_OUTER_BOUND ( 'NONE', #261, .T. ) ;
#172 = DIRECTION ( 'NONE',  ( -1.000000000000000000, 0.0000000000000000000, 0.0000000000000000000 ) ) ;
#173 = LINE ( 'NONE', #183, #74 ) ;
#174 = STYLED_ITEM ( 'NONE', ( #66 ), #300 ) ;
#175 = DIRECTION ( 'NONE',  ( -8.209585555137123600E-017, 1.000000000000000000, -0.0000000000000000000 ) ) ;
#176 = DIRECTION ( 'NONE',  ( -8.209585555137123600E-017, 1.000000000000000000, -0.0000000000000000000 ) ) ;
#177 = EDGE_LOOP ( 'NONE', ( #341, #195, #372, #209 ) ) ;
#178 = LINE ( 'NONE', #54, #98 ) ;
#179 = CARTESIAN_POINT ( 'NONE',  ( 1.084202172485504400E-016, 0.0000000000000000000, 0.0000000000000000000 ) ) ;
#180 = ORIENTED_EDGE ( 'NONE', *, *, #156, .T. ) ;
#181 =( NAMED_UNIT ( * ) SI_UNIT ( $, .STERADIAN. ) SOLID_ANGLE_UNIT ( ) );
#182 = EDGE_CURVE ( 'NONE', #225, #254, #29, .T. ) ;
#183 = CARTESIAN_POINT ( 'NONE',  ( -8.000000000000005300, 18.69999999999999900, 0.0000000000000000000 ) ) ;
#184 = DIRECTION ( 'NONE',  ( -8.209585555137123600E-017, 1.000000000000000000, -0.0000000000000000000 ) ) ;
#185 = VERTEX_POINT ( 'NONE', #291 ) ;
#186 = CIRCLE ( 'NONE', #130, 6.900000000000001200 ) ;
#187 = FACE_OUTER_BOUND ( 'NONE', #277, .T. ) ;
#188 = DIRECTION ( 'NONE',  ( 0.0000000000000000000, 0.0000000000000000000, -1.000000000000000000 ) ) ;
#189 = CARTESIAN_POINT ( 'NONE',  ( 8.000000000000001800, 15.00000000000000000, 0.0000000000000000000 ) ) ;
#190 = AXIS2_PLACEMENT_3D ( 'NONE', #129, #319, #375 ) ;
#191 = EDGE_CURVE ( 'NONE', #349, #185, #162, .T. ) ;
#192 = EDGE_LOOP ( 'NONE', ( #105, #180, #65 ) ) ;
#193 = DIRECTION ( 'NONE',  ( -1.000000000000000000, 0.0000000000000000000, 0.0000000000000000000 ) ) ;
#194 = CIRCLE ( 'NONE', #320, 8.000000000000001800 ) ;
#195 = ORIENTED_EDGE ( 'NONE', *, *, #48, .T. ) ;
#196 = CARTESIAN_POINT ( 'NONE',  ( -1.123017616022017900E-015, 15.00000000000000000, 0.0000000000000000000 ) ) ;
#197 = DIRECTION ( 'NONE',  ( -1.000000000000000000, 0.0000000000000000000, 0.0000000000000000000 ) ) ;
#198 = DIRECTION ( 'NONE',  ( -8.209585555137123600E-017, 1.000000000000000000, -0.0000000000000000000 ) ) ;
#199 = ORIENTED_EDGE ( 'NONE', *, *, #191, .T. ) ;
#200 = ADVANCED_FACE ( 'NONE', ( #187 ), #79, .T. ) ;
#201 = AXIS2_PLACEMENT_3D ( 'NONE', #62, #402, #34 ) ;
#202 = DIRECTION ( 'NONE',  ( -8.209585555137123600E-017, 1.000000000000000000, -0.0000000000000000000 ) ) ;
#203 = ORIENTED_EDGE ( 'NONE', *, *, #268, .T. ) ;
#204 = EDGE_LOOP ( 'NONE', ( #252, #4, #44, #45 ) ) ;
#205 = CARTESIAN_POINT ( 'NONE',  ( -1.426772281562091400E-015, 18.69999999999999900, 0.0000000000000000000 ) ) ;
#206 = CIRCLE ( 'NONE', #201, 8.000000000000003600 ) ;
#207 = FILL_AREA_STYLE ('',( #267 ) ) ;
#208 = SURFACE_STYLE_USAGE ( .BOTH. , #392 ) ;
#209 = ORIENTED_EDGE ( 'NONE', *, *, #145, .F. ) ;
#210 = AXIS2_PLACEMENT_3D ( 'NONE', #316, #342, #193 ) ;
#211 = DIRECTION ( 'NONE',  ( -1.000000000000000000, 0.0000000000000000000, 0.0000000000000000000 ) ) ;
#212 = ORIENTED_EDGE ( 'NONE', *, *, #299, .T. ) ;
#213 = EDGE_CURVE ( 'NONE', #359, #376, #396, .T. ) ;
#214 = ORIENTED_EDGE ( 'NONE', *, *, #364, .T. ) ;
#215 = APPLICATION_CONTEXT ( 'automotive_design' ) ;
#216 = AXIS2_PLACEMENT_3D ( 'NONE', #115, #140, #112 ) ;
#217 = FACE_OUTER_BOUND ( 'NONE', #192, .T. ) ;
#218 = CARTESIAN_POINT ( 'NONE',  ( -8.000000000000005300, 15.00000000000000000, 0.0000000000000000000 ) ) ;
#219 = UNCERTAINTY_MEASURE_WITH_UNIT (LENGTH_MEASURE( 1.000000000000000100E-005 ), #64, 'distance_accuracy_value', 'NONE');
#220 = CLOSED_SHELL ( 'NONE', ( #352, #15, #228, #134, #106, #329, #347, #297, #263, #114, #200, #76, #166, #103 ) ) ;
#221 = DIRECTION ( 'NONE',  ( 0.0000000000000000000, 0.0000000000000000000, -1.000000000000000000 ) ) ;
#222 = CIRCLE ( 'NONE', #355, 6.900000000000003000 ) ;
#223 = VERTEX_POINT ( 'NONE', #142 ) ;
#224 = AXIS2_PLACEMENT_3D ( 'NONE', #351, #99, #292 ) ;
#225 = VERTEX_POINT ( 'NONE', #50 ) ;
#226 = CYLINDRICAL_SURFACE ( 'NONE', #190, 8.000000000000003600 ) ;
#227 = CYLINDRICAL_SURFACE ( 'NONE', #2, 6.900000000000002100 ) ;
#228 = ADVANCED_FACE ( 'NONE', ( #251 ), #151, .T. ) ;
#229 = DIRECTION ( 'NONE',  ( -1.000000000000000000, 0.0000000000000000000, 0.0000000000000000000 ) ) ;
#230 = DIRECTION ( 'NONE',  ( -8.209585555137123600E-017, 1.000000000000000000, -0.0000000000000000000 ) ) ;
#231 = ORIENTED_EDGE ( 'NONE', *, *, #286, .T. ) ;
#232 = DIRECTION ( 'NONE',  ( -8.209585555137123600E-017, 1.000000000000000000, -0.0000000000000000000 ) ) ;
#233 = AXIS2_PLACEMENT_3D ( 'NONE', #385, #354, #81 ) ;
#234 = DIRECTION ( 'NONE',  ( -8.209585555137123600E-017, 1.000000000000000000, -0.0000000000000000000 ) ) ;
#235 = EDGE_CURVE ( 'NONE', #159, #317, #318, .T. ) ;
#236 = CARTESIAN_POINT ( 'NONE',  ( 10.25000000000000900, 17.99999999999999300, 0.0000000000000000000 ) ) ;
#237 = FACE_OUTER_BOUND ( 'NONE', #393, .T. ) ;
#238 = CARTESIAN_POINT ( 'NONE',  ( -7.350000000000003200, -6.034045383025787800E-016, 0.0000000000000000000 ) ) ;
#239 = CARTESIAN_POINT ( 'NONE',  ( -1.123017616022017900E-015, 15.00000000000000000, 0.0000000000000000000 ) ) ;
#240 = FACE_OUTER_BOUND ( 'NONE', #60, .T. ) ;
#241 = EDGE_LOOP ( 'NONE', ( #369, #362, #133, #144 ) ) ;
#242 = VECTOR ( 'NONE', #357, 1000.000000000000000 ) ;
#243 = DIRECTION ( 'NONE',  ( -1.000000000000000000, -8.209585555137122300E-017, 0.0000000000000000000 ) ) ;
#244 = PRESENTATION_STYLE_ASSIGNMENT (( #68 ) ) ;
#245 = DIRECTION ( 'NONE',  ( -8.209585555137123600E-017, 1.000000000000000000, -0.0000000000000000000 ) ) ;
#246 = SHAPE_DEFINITION_REPRESENTATION ( #7, #356 ) ;
#247 = AXIS2_PLACEMENT_3D ( 'NONE', #350, #9, #38 ) ;
#248 = EDGE_LOOP ( 'NONE', ( #231, #276, #379, #312 ) ) ;
#249 = CARTESIAN_POINT ( 'NONE',  ( 4.196966634577891400E-015, -16.27083333333320400, 0.0000000000000000000 ) ) ;
#250 = VERTEX_POINT ( 'NONE', #384 ) ;
#251 = FACE_OUTER_BOUND ( 'NONE', #287, .T. ) ;
#252 = ORIENTED_EDGE ( 'NONE', *, *, #113, .F. ) ;
#253 = CARTESIAN_POINT ( 'NONE',  ( 8.000000000000001800, 1.999999999999998700, 9.797174393178829600E-016 ) ) ;
#254 = VERTEX_POINT ( 'NONE', #236 ) ;
#255 = DIRECTION ( 'NONE',  ( -8.209585555137123600E-017, 1.000000000000000000, -0.0000000000000000000 ) ) ;
#256 = SPHERICAL_SURFACE ( 'NONE', #109, 34.97083333333320400 ) ;
#257 = EDGE_CURVE ( 'NONE', #225, #308, #72, .T. ) ;
#258 = DIRECTION ( 'NONE',  ( 0.0000000000000000000, 0.0000000000000000000, -1.000000000000000000 ) ) ;
#259 = CARTESIAN_POINT ( 'NONE',  ( 8.000000000000001800, 18.69999999999999900, 9.797174393178831600E-016 ) ) ;
#260 = PLANE ( 'NONE',  #27 ) ;
#261 = EDGE_LOOP ( 'NONE', ( #77, #345 ) ) ;
#262 = CYLINDRICAL_SURFACE ( 'NONE', #141, 8.000000000000003600 ) ;
#263 = ADVANCED_FACE ( 'NONE', ( #325 ), #227, .F. ) ;
#264 = DIRECTION ( 'NONE',  ( 1.000000000000000000, 9.699094565741064800E-017, 0.0000000000000000000 ) ) ;
#265 = CYLINDRICAL_SURFACE ( 'NONE', #42, 10.25000000000000400 ) ;
#266 = AXIS2_PLACEMENT_3D ( 'NONE', #353, #198, #197 ) ;
#267 = FILL_AREA_STYLE_COLOUR ( '', #169 ) ;
#268 = EDGE_CURVE ( 'NONE', #100, #159, #14, .T. ) ;
#269 = ORIENTED_EDGE ( 'NONE', *, *, #213, .F. ) ;
#270 = LINE ( 'NONE', #57, #158 ) ;
#271 = DIRECTION ( 'NONE',  ( -8.209585555137123600E-017, 1.000000000000000000, -0.0000000000000000000 ) ) ;
#272 = DIRECTION ( 'NONE',  ( 0.3090860723375577500, 0.9510340687309482000, 3.785212691492174200E-017 ) ) ;
#273 = CARTESIAN_POINT ( 'NONE',  ( -1.370334062354562200E-015, 18.01253266284296800, 0.0000000000000000000 ) ) ;
#274 = AXIS2_PLACEMENT_3D ( 'NONE', #239, #176, #334 ) ;
#275 = EDGE_CURVE ( 'NONE', #250, #376, #30, .T. ) ;
#276 = ORIENTED_EDGE ( 'NONE', *, *, #332, .T. ) ;
#277 = EDGE_LOOP ( 'NONE', ( #154, #170, #279 ) ) ;
#278 = AXIS2_PLACEMENT_3D ( 'NONE', #389, #331, #306 ) ;
#279 = ORIENTED_EDGE ( 'NONE', *, *, #84, .T. ) ;
#280 = FACE_BOUND ( 'NONE', #360, .T. ) ;
#281 = DIRECTION ( 'NONE',  ( 1.224646799147353200E-016, 1.005384267242502500E-032, -1.000000000000000000 ) ) ;
#282 = EDGE_CURVE ( 'NONE', #223, #225, #178, .T. ) ;
#283 = DIRECTION ( 'NONE',  ( -1.000000000000000000, 0.0000000000000000000, 0.0000000000000000000 ) ) ;
#284 = ORIENTED_EDGE ( 'NONE', *, *, #235, .T. ) ;
#285 = ORIENTED_EDGE ( 'NONE', *, *, #92, .T. ) ;
#286 = EDGE_CURVE ( 'NONE', #223, #321, #394, .T. ) ;
#287 = EDGE_LOOP ( 'NONE', ( #53, #127, #125 ) ) ;
#288 = EDGE_CURVE ( 'NONE', #185, #349, #120, .T. ) ;
#289 = VECTOR ( 'NONE', #153, 1000.000000000000200 ) ;
#290 = VECTOR ( 'NONE', #202, 1000.000000000000000 ) ;
#291 = CARTESIAN_POINT ( 'NONE',  ( 7.350000000000003200, 6.034045383025787800E-016, 9.399164183455939600E-016 ) ) ;
#292 = DIRECTION ( 'NONE',  ( 1.000000000000000000, 0.0000000000000000000, 0.0000000000000000000 ) ) ;
#293 = DIRECTION ( 'NONE',  ( -1.000000000000000000, 0.0000000000000000000, 0.0000000000000000000 ) ) ;
#294 = ORIENTED_EDGE ( 'NONE', *, *, #275, .T. ) ;
#295 = ORIENTED_EDGE ( 'NONE', *, *, #43, .T. ) ;
#296 =( GEOMETRIC_REPRESENTATION_CONTEXT ( 3 ) GLOBAL_UNCERTAINTY_ASSIGNED_CONTEXT ( ( #89 ) ) GLOBAL_UNIT_ASSIGNED_CONTEXT ( ( #119, #368, #59 ) ) REPRESENTATION_CONTEXT ( 'NONE', 'WORKASPACE' ) );
#297 = ADVANCED_FACE ( 'NONE', ( #237, #41 ), #260, .F. ) ;
#298 = DIRECTION ( 'NONE',  ( 1.224646799147353200E-016, 1.005384267242502500E-032, -1.000000000000000000 ) ) ;
#299 = EDGE_CURVE ( 'NONE', #317, #118, #346, .T. ) ;
#300 = MANIFOLD_SOLID_BREP ( 'Rotation1', #220 ) ;
#301 = DIRECTION ( 'NONE',  ( -1.000000000000000000, 0.0000000000000000000, 0.0000000000000000000 ) ) ;
#302 = ORIENTED_EDGE ( 'NONE', *, *, #168, .T. ) ;
#303 = CARTESIAN_POINT ( 'NONE',  ( 3.450661295517391100E-015, 19.50000000000000000, 0.0000000000000000000 ) ) ;
#304 = CYLINDRICAL_SURFACE ( 'NONE', #73, 10.25000000000000400 ) ;
#305 = AXIS2_PLACEMENT_3D ( 'NONE', #189, #71, #315 ) ;
#306 = DIRECTION ( 'NONE',  ( -1.000000000000000000, -8.209585555137122300E-017, 0.0000000000000000000 ) ) ;
#307 = CARTESIAN_POINT ( 'NONE',  ( 8.000000000000001800, 15.00000000000000000, 9.797174393178831600E-016 ) ) ;
#308 = VERTEX_POINT ( 'NONE', #303 ) ;
#309 =( LENGTH_UNIT ( ) NAMED_UNIT ( * ) SI_UNIT ( .MILLI., .METRE. ) );
#310 = APPLICATION_PROTOCOL_DEFINITION ( 'draft international standard', 'automotive_design', 1998, #215 ) ;
#311 = AXIS2_PLACEMENT_3D ( 'NONE', #249, #281, #95 ) ;
#312 = ORIENTED_EDGE ( 'NONE', *, *, #282, .F. ) ;
#313 = DIRECTION ( 'NONE',  ( -8.209585555137123600E-017, 1.000000000000000000, -0.0000000000000000000 ) ) ;
#314 = EDGE_CURVE ( 'NONE', #185, #159, #104, .T. ) ;
#315 = DIRECTION ( 'NONE',  ( -1.000000000000000000, -8.209585555137123600E-017, 0.0000000000000000000 ) ) ;
#316 = CARTESIAN_POINT ( 'NONE',  ( -1.369305182676131000E-015, 17.99999999999999300, 0.0000000000000000000 ) ) ;
#317 = VERTEX_POINT ( 'NONE', #307 ) ;
#318 = LINE ( 'NONE', #259, #290 ) ;
#319 = DIRECTION ( 'NONE',  ( -8.209585555137123600E-017, 1.000000000000000000, -0.0000000000000000000 ) ) ;
#320 = AXIS2_PLACEMENT_3D ( 'NONE', #26, #175, #61 ) ;
#321 = VERTEX_POINT ( 'NONE', #86 ) ;
#322 = CIRCLE ( 'NONE', #132, 6.900000000000001200 ) ;
#323 = DIRECTION ( 'NONE',  ( -8.209585555137123600E-017, 1.000000000000000000, -0.0000000000000000000 ) ) ;
#324 = DIRECTION ( 'NONE',  ( 1.000000000000000000, 9.920973054555826800E-017, 0.0000000000000000000 ) ) ;
#325 = FACE_OUTER_BOUND ( 'NONE', #149, .T. ) ;
#326 = FACE_OUTER_BOUND ( 'NONE', #177, .T. ) ;
#327 = CARTESIAN_POINT ( 'NONE',  ( -6.900000000000003900, 18.69999999999999900, 0.0000000000000000000 ) ) ;
#328 = CIRCLE ( 'NONE', #311, 34.97083333333320400 ) ;
#329 = ADVANCED_FACE ( 'NONE', ( #240 ), #333, .T. ) ;
#330 = MECHANICAL_DESIGN_GEOMETRIC_PRESENTATION_REPRESENTATION (  '', ( #383 ), #32 ) ;
#331 = DIRECTION ( 'NONE',  ( -8.209585555137123600E-017, 1.000000000000000000, -0.0000000000000000000 ) ) ;
#332 = EDGE_CURVE ( 'NONE', #321, #254, #270, .T. ) ;
#333 = CONICAL_SURFACE ( 'NONE', #336, 7.350000000000003200, 0.3142318990843379600 ) ;
#334 = DIRECTION ( 'NONE',  ( -1.000000000000000000, 0.0000000000000000000, 0.0000000000000000000 ) ) ;
#335 = UNCERTAINTY_MEASURE_WITH_UNIT (LENGTH_MEASURE( 1.000000000000000100E-005 ), #309, 'distance_accuracy_value', 'NONE');
#336 = AXIS2_PLACEMENT_3D ( 'NONE', #179, #370, #91 ) ;
#337 = ORIENTED_EDGE ( 'NONE', *, *, #391, .T. ) ;
#338 = COLOUR_RGB ( '',0.7529411764705882200, 0.7529411764705882200, 0.7529411764705882200 ) ;
#339 = CYLINDRICAL_SURFACE ( 'NONE', #69, 6.900000000000002100 ) ;
#340 = PRESENTATION_LAYER_ASSIGNMENT (  '', '', ( #174 ) ) ;
#341 = ORIENTED_EDGE ( 'NONE', *, *, #332, .F. ) ;
#342 = DIRECTION ( 'NONE',  ( -8.209585555137123600E-017, 1.000000000000000000, -0.0000000000000000000 ) ) ;
#343 = DIRECTION ( 'NONE',  ( -8.209585555137123600E-017, 1.000000000000000000, -0.0000000000000000000 ) ) ;
#344 = ORIENTED_EDGE ( 'NONE', *, *, #23, .F. ) ;
#345 = ORIENTED_EDGE ( 'NONE', *, *, #48, .F. ) ;
#346 = CIRCLE ( 'NONE', #274, 8.000000000000003600 ) ;
#347 = ADVANCED_FACE ( 'NONE', ( #28 ), #111, .T. ) ;
#348 = VECTOR ( 'NONE', #272, 1000.000000000000200 ) ;
#349 = VERTEX_POINT ( 'NONE', #238 ) ;
#350 = CARTESIAN_POINT ( 'NONE',  ( 4.196966634577891400E-015, -16.27083333333320400, 0.0000000000000000000 ) ) ;
#351 = CARTESIAN_POINT ( 'NONE',  ( 4.196966634577891400E-015, -16.27083333333320400, 0.0000000000000000000 ) ) ;
#352 = ADVANCED_FACE ( 'NONE', ( #96 ), #262, .T. ) ;
#353 = CARTESIAN_POINT ( 'NONE',  ( -1.123017616022017900E-015, 15.00000000000000000, 0.0000000000000000000 ) ) ;
#354 = DIRECTION ( 'NONE',  ( 0.0000000000000000000, 0.0000000000000000000, -1.000000000000000000 ) ) ;
#355 = AXIS2_PLACEMENT_3D ( 'NONE', #273, #117, #87 ) ;
#356 = ADVANCED_BREP_SHAPE_REPRESENTATION ( '2029520_KSTP1', ( #300, #51 ), #161 ) ;
#357 = DIRECTION ( 'NONE',  ( -8.209585555137123600E-017, 1.000000000000000000, -0.0000000000000000000 ) ) ;
#358 = CARTESIAN_POINT ( 'NONE',  ( 4.196966634577891400E-015, -16.27083333333320400, 0.0000000000000000000 ) ) ;
#359 = VERTEX_POINT ( 'NONE', #361 ) ;
#360 = EDGE_LOOP ( 'NONE', ( #52, #212 ) ) ;
#361 = CARTESIAN_POINT ( 'NONE',  ( 6.900000000000001200, 18.01253266284296800, 8.450062914116739600E-016 ) ) ;
#362 = ORIENTED_EDGE ( 'NONE', *, *, #288, .T. ) ;
#363 = ORIENTED_EDGE ( 'NONE', *, *, #168, .F. ) ;
#364 = EDGE_CURVE ( 'NONE', #159, #100, #194, .T. ) ;
#365 = LINE ( 'NONE', #399, #102 ) ;
#366 =( NAMED_UNIT ( * ) PLANE_ANGLE_UNIT ( ) SI_UNIT ( $, .RADIAN. ) );
#367 = APPLICATION_PROTOCOL_DEFINITION ( 'draft international standard', 'automotive_design', 1998, #122 ) ;
#368 =( NAMED_UNIT ( * ) PLANE_ANGLE_UNIT ( ) SI_UNIT ( $, .RADIAN. ) );
#369 = ORIENTED_EDGE ( 'NONE', *, *, #314, .F. ) ;
#370 = DIRECTION ( 'NONE',  ( -8.209585555137123600E-017, 1.000000000000000000, -0.0000000000000000000 ) ) ;
#371 = ORIENTED_EDGE ( 'NONE', *, *, #268, .F. ) ;
#372 = ORIENTED_EDGE ( 'NONE', *, *, #282, .T. ) ;
#373 = DIRECTION ( 'NONE',  ( 1.000000000000000000, 0.0000000000000000000, 0.0000000000000000000 ) ) ;
#374 = DIRECTION ( 'NONE',  ( -1.000000000000000000, 0.0000000000000000000, 0.0000000000000000000 ) ) ;
#375 = DIRECTION ( 'NONE',  ( -1.000000000000000000, 0.0000000000000000000, 0.0000000000000000000 ) ) ;
#376 = VERTEX_POINT ( 'NONE', #85 ) ;
#377 = ORIENTED_EDGE ( 'NONE', *, *, #314, .T. ) ;
#378 = AXIS2_PLACEMENT_3D ( 'NONE', #17, #22, #172 ) ;
#379 = ORIENTED_EDGE ( 'NONE', *, *, #182, .F. ) ;
#380 = CIRCLE ( 'NONE', #247, 34.97083333333320400 ) ;
#381 = AXIS2_PLACEMENT_3D ( 'NONE', #46, #221, #324 ) ;
#382 = PLANE ( 'NONE',  #305 ) ;
#383 = STYLED_ITEM ( 'NONE', ( #244 ), #356 ) ;
#384 = CARTESIAN_POINT ( 'NONE',  ( -6.900000000000001200, -5.664614033044617000E-016, 0.0000000000000000000 ) ) ;
#385 = CARTESIAN_POINT ( 'NONE',  ( 4.196966634577891400E-015, -16.27083333333320400, 0.0000000000000000000 ) ) ;
#386 = EDGE_LOOP ( 'NONE', ( #56, #269, #285 ) ) ;
#387 = PRODUCT_DEFINITION ( 'UNKNOWN', '', #8, #136 ) ;
#388 = VERTEX_POINT ( 'NONE', #121 ) ;
#389 = CARTESIAN_POINT ( 'NONE',  ( 1.084202172485504400E-016, 0.0000000000000000000, 0.0000000000000000000 ) ) ;
#390 = FILL_AREA_STYLE_COLOUR ( '', #338 ) ;
#391 = EDGE_CURVE ( 'NONE', #376, #359, #222, .T. ) ;
#392 = SURFACE_SIDE_STYLE ('',( #35 ) ) ;
#393 = EDGE_LOOP ( 'NONE', ( #83, #70 ) ) ;
#394 = CIRCLE ( 'NONE', #266, 10.25000000000000200 ) ;
#395 = FACE_OUTER_BOUND ( 'NONE', #97, .T. ) ;
#396 = CIRCLE ( 'NONE', #378, 6.900000000000003000 ) ;
#397 = DIRECTION ( 'NONE',  ( -1.000000000000000000, 0.0000000000000000000, 0.0000000000000000000 ) ) ;
#398 = AXIS2_PLACEMENT_3D ( 'NONE', #167, #19, #243 ) ;
#399 = CARTESIAN_POINT ( 'NONE',  ( 6.900000000000000400, 18.69999999999999900, 8.450062914116739600E-016 ) ) ;
#400 = ORIENTED_EDGE ( 'NONE', *, *, #10, .F. ) ;
#401 =( NAMED_UNIT ( * ) PLANE_ANGLE_UNIT ( ) SI_UNIT ( $, .RADIAN. ) );
#402 = DIRECTION ( 'NONE',  ( -8.209585555137123600E-017, 1.000000000000000000, -0.0000000000000000000 ) ) ;
ENDSEC;
END-ISO-10303-21;
