ISO-10303-21;
HEADER;
FILE_DESCRIPTION (( 'STEP AP214' ),
    '1' );
FILE_NAME ('2029517_KSTP1.stp',
    '2018-09-10T11:57:22',
    ( '' ),
    ( '' ),
    'SwSTEP 2.0',
    'SolidWorks 2016',
    '' );
FILE_SCHEMA (( 'AUTOMOTIVE_DESIGN' ));
ENDSEC;

DATA;
#1 = CARTESIAN_POINT ( 'NONE',  ( -4.900000000000002100, 15.70000000000000600, 0.0000000000000000000 ) ) ;
#2 = ORIENTED_EDGE ( 'NONE', *, *, #63, .F. ) ;
#3 = CARTESIAN_POINT ( 'NONE',  ( 2.686568915629501100E-015, -6.937499999999962700, 0.0000000000000000000 ) ) ;
#4 = CONICAL_SURFACE ( 'NONE', #366, 5.350000000000002300, 0.3142318990843380700 ) ;
#5 = DIRECTION ( 'NONE',  ( -6.765853183595730600E-017, 1.000000000000000000, -0.0000000000000000000 ) ) ;
#6 = PRESENTATION_LAYER_ASSIGNMENT (  '', '', ( #316 ) ) ;
#7 = CYLINDRICAL_SURFACE ( 'NONE', #349, 4.900000000000001200 ) ;
#8 = CARTESIAN_POINT ( 'NONE',  ( 1.084202172485504400E-016, 0.0000000000000000000, 0.0000000000000000000 ) ) ;
#9 = DIRECTION ( 'NONE',  ( -1.000000000000000000, 0.0000000000000000000, 0.0000000000000000000 ) ) ;
#10 = ORIENTED_EDGE ( 'NONE', *, *, #234, .T. ) ;
#11 = CARTESIAN_POINT ( 'NONE',  ( 5.350000000000002300, 3.619731453223717700E-016, 6.949870585161231700E-016 ) ) ;
#12 = ADVANCED_FACE ( 'NONE', ( #361 ), #7, .F. ) ;
#13 = CIRCLE ( 'NONE', #79, 4.900000000000002100 ) ;
#14 = ORIENTED_EDGE ( 'NONE', *, *, #340, .F. ) ;
#15 = DIRECTION ( 'NONE',  ( -1.000000000000000000, -6.765853183595730600E-017, 0.0000000000000000000 ) ) ;
#16 = DIRECTION ( 'NONE',  ( -6.765853183595730600E-017, 1.000000000000000000, -0.0000000000000000000 ) ) ;
#17 = EDGE_CURVE ( 'NONE', #177, #182, #58, .T. ) ;
#18 = ORIENTED_EDGE ( 'NONE', *, *, #17, .F. ) ;
#19 = DIRECTION ( 'NONE',  ( 0.0000000000000000000, 0.0000000000000000000, -1.000000000000000000 ) ) ;
#20 = ORIENTED_EDGE ( 'NONE', *, *, #83, .F. ) ;
#21 = PRESENTATION_STYLE_ASSIGNMENT (( #315 ) ) ;
#22 = AXIS2_PLACEMENT_3D ( 'NONE', #396, #395, #147 ) ;
#23 = VERTEX_POINT ( 'NONE', #402 ) ;
#24 = CARTESIAN_POINT ( 'NONE',  ( 6.000000000000001800, 2.000000000000000400, 7.347880794884121700E-016 ) ) ;
#25 = EDGE_LOOP ( 'NONE', ( #18, #123, #251, #390 ) ) ;
#26 = MANIFOLD_SOLID_BREP ( 'Rotation1', #219 ) ;
#27 = FILL_AREA_STYLE ('',( #272 ) ) ;
#28 =( GEOMETRIC_REPRESENTATION_CONTEXT ( 3 ) GLOBAL_UNCERTAINTY_ASSIGNED_CONTEXT ( ( #381 ) ) GLOBAL_UNIT_ASSIGNED_CONTEXT ( ( #82, #126, #174 ) ) REPRESENTATION_CONTEXT ( 'NONE', 'WORKASPACE' ) );
#29 = ORIENTED_EDGE ( 'NONE', *, *, #59, .F. ) ;
#30 = CARTESIAN_POINT ( 'NONE',  ( 2.535955043475056900E-015, 16.50000000000000000, 0.0000000000000000000 ) ) ;
#31 =( GEOMETRIC_REPRESENTATION_CONTEXT ( 3 ) GLOBAL_UNCERTAINTY_ASSIGNED_CONTEXT ( ( #292 ) ) GLOBAL_UNIT_ASSIGNED_CONTEXT ( ( #210, #318, #325 ) ) REPRESENTATION_CONTEXT ( 'NONE', 'WORKASPACE' ) );
#32 = DIRECTION ( 'NONE',  ( 0.0000000000000000000, 0.0000000000000000000, 1.000000000000000000 ) ) ;
#33 = ORIENTED_EDGE ( 'NONE', *, *, #148, .F. ) ;
#34 = AXIS2_PLACEMENT_3D ( 'NONE', #246, #324, #244 ) ;
#35 = FACE_OUTER_BOUND ( 'NONE', #25, .T. ) ;
#36 = CIRCLE ( 'NONE', #331, 5.350000000000002300 ) ;
#37 = AXIS2_PLACEMENT_3D ( 'NONE', #305, #372, #393 ) ;
#38 = CARTESIAN_POINT ( 'NONE',  ( -9.538187325759797500E-016, 15.70000000000000600, 0.0000000000000000000 ) ) ;
#39 = EDGE_CURVE ( 'NONE', #215, #259, #383, .T. ) ;
#40 = ORIENTED_EDGE ( 'NONE', *, *, #131, .T. ) ;
#41 = PRESENTATION_STYLE_ASSIGNMENT (( #120 ) ) ;
#42 = VERTEX_POINT ( 'NONE', #374 ) ;
#43 = CARTESIAN_POINT ( 'NONE',  ( -7.034821647829372800E-016, 12.00000000000000000, 0.0000000000000000000 ) ) ;
#44 = DIRECTION ( 'NONE',  ( -1.000000000000000000, -6.765853183595730600E-017, 0.0000000000000000000 ) ) ;
#45 = AXIS2_PLACEMENT_3D ( 'NONE', #80, #336, #268 ) ;
#46 = CARTESIAN_POINT ( 'NONE',  ( -9.538187325759797500E-016, 15.70000000000000600, 0.0000000000000000000 ) ) ;
#47 = CARTESIAN_POINT ( 'NONE',  ( -6.000000000000001800, 1.999999999999999600, 0.0000000000000000000 ) ) ;
#48 = AXIS2_PLACEMENT_3D ( 'NONE', #281, #351, #350 ) ;
#49 = DIRECTION ( 'NONE',  ( -1.000000000000000000, 0.0000000000000000000, 0.0000000000000000000 ) ) ;
#50 = ORIENTED_EDGE ( 'NONE', *, *, #226, .T. ) ;
#51 = VERTEX_POINT ( 'NONE', #159 ) ;
#52 = CARTESIAN_POINT ( 'NONE',  ( -6.000000000000003600, 12.00000000000000000, 0.0000000000000000000 ) ) ;
#53 = DIRECTION ( 'NONE',  ( -1.000000000000000000, 0.0000000000000000000, 0.0000000000000000000 ) ) ;
#54 = AXIS2_PLACEMENT_3D ( 'NONE', #3, #56, #282 ) ;
#55 = EDGE_CURVE ( 'NONE', #253, #321, #375, .T. ) ;
#56 = DIRECTION ( 'NONE',  ( 0.0000000000000000000, 0.0000000000000000000, -1.000000000000000000 ) ) ;
#57 = VERTEX_POINT ( 'NONE', #30 ) ;
#58 = LINE ( 'NONE', #230, #335 ) ;
#59 = EDGE_CURVE ( 'NONE', #242, #379, #302, .T. ) ;
#60 = EDGE_LOOP ( 'NONE', ( #258, #355 ) ) ;
#61 = STYLED_ITEM ( 'NONE', ( #21 ), #300 ) ;
#62 = PLANE ( 'NONE',  #392 ) ;
#63 = EDGE_CURVE ( 'NONE', #182, #42, #391, .T. ) ;
#64 = CARTESIAN_POINT ( 'NONE',  ( 2.686568915629501100E-015, -6.937499999999962700, 0.0000000000000000000 ) ) ;
#65 = ORIENTED_EDGE ( 'NONE', *, *, #343, .F. ) ;
#66 = SPHERICAL_SURFACE ( 'NONE', #88, 23.43749999999996400 ) ;
#67 = VECTOR ( 'NONE', #328, 1000.000000000000000 ) ;
#68 = CARTESIAN_POINT ( 'NONE',  ( 5.350000000000002300, 3.619731453223717700E-016, 6.551860375438341700E-016 ) ) ;
#69 = ORIENTED_EDGE ( 'NONE', *, *, #94, .F. ) ;
#70 = DIRECTION ( 'NONE',  ( 0.3090860723375578600, 0.9510340687309482000, 3.785212691492175500E-017 ) ) ;
#71 = AXIS2_PLACEMENT_3D ( 'NONE', #105, #297, #332 ) ;
#72 = ADVANCED_FACE ( 'NONE', ( #216 ), #155, .T. ) ;
#73 = CARTESIAN_POINT ( 'NONE',  ( 2.686568915629501100E-015, -6.937499999999962700, 0.0000000000000000000 ) ) ;
#74 = FACE_OUTER_BOUND ( 'NONE', #265, .T. ) ;
#75 = CARTESIAN_POINT ( 'NONE',  ( 2.686568915629501100E-015, -6.937499999999962700, 0.0000000000000000000 ) ) ;
#76 = ADVANCED_FACE ( 'NONE', ( #348, #287 ), #151, .F. ) ;
#77 = EDGE_CURVE ( 'NONE', #379, #242, #36, .T. ) ;
#78 = DIRECTION ( 'NONE',  ( 1.000000000000000000, 7.663052351084746500E-017, 0.0000000000000000000 ) ) ;
#79 = AXIS2_PLACEMENT_3D ( 'NONE', #337, #399, #112 ) ;
#80 = CARTESIAN_POINT ( 'NONE',  ( -9.538187325759797500E-016, 15.70000000000000600, 0.0000000000000000000 ) ) ;
#81 = FACE_OUTER_BOUND ( 'NONE', #142, .T. ) ;
#82 =( LENGTH_UNIT ( ) NAMED_UNIT ( * ) SI_UNIT ( .MILLI., .METRE. ) );
#83 = EDGE_CURVE ( 'NONE', #173, #97, #314, .T. ) ;
#84 = DIRECTION ( 'NONE',  ( -6.765853183595730600E-017, 1.000000000000000000, -0.0000000000000000000 ) ) ;
#85 = DIRECTION ( 'NONE',  ( -6.765853183595730600E-017, 1.000000000000000000, -0.0000000000000000000 ) ) ;
#86 = APPLICATION_CONTEXT ( 'automotive_design' ) ;
#87 = DIRECTION ( 'NONE',  ( -6.765853183595730600E-017, 1.000000000000000000, -0.0000000000000000000 ) ) ;
#88 = AXIS2_PLACEMENT_3D ( 'NONE', #199, #19, #197 ) ;
#89 = DIRECTION ( 'NONE',  ( -1.000000000000000000, -6.765853183595730600E-017, 0.0000000000000000000 ) ) ;
#90 = COLOUR_RGB ( '',0.7529411764705882200, 0.7529411764705882200, 0.7529411764705882200 ) ;
#91 = CYLINDRICAL_SURFACE ( 'NONE', #45, 6.000000000000001800 ) ;
#92 = DIRECTION ( 'NONE',  ( -6.765853183595730600E-017, 1.000000000000000000, -0.0000000000000000000 ) ) ;
#93 = ORIENTED_EDGE ( 'NONE', *, *, #226, .F. ) ;
#94 = EDGE_CURVE ( 'NONE', #177, #173, #152, .T. ) ;
#95 = EDGE_LOOP ( 'NONE', ( #398, #111, #33, #186 ) ) ;
#96 = CIRCLE ( 'NONE', #144, 8.250000000000003600 ) ;
#97 = VERTEX_POINT ( 'NONE', #376 ) ;
#98 = DIRECTION ( 'NONE',  ( -6.765853183595730600E-017, 1.000000000000000000, -0.0000000000000000000 ) ) ;
#99 = DIRECTION ( 'NONE',  ( -6.765853183595730600E-017, 1.000000000000000000, -0.0000000000000000000 ) ) ;
#100 = CARTESIAN_POINT ( 'NONE',  ( -8.250000000000003600, 15.70000000000000600, 0.0000000000000000000 ) ) ;
#101 = VECTOR ( 'NONE', #338, 1000.000000000000000 ) ;
#102 = ORIENTED_EDGE ( 'NONE', *, *, #273, .F. ) ;
#103 = CARTESIAN_POINT ( 'NONE',  ( 1.084202172485504400E-016, 0.0000000000000000000, 0.0000000000000000000 ) ) ;
#104 = DIRECTION ( 'NONE',  ( -6.765853183595730600E-017, 1.000000000000000000, -0.0000000000000000000 ) ) ;
#105 = CARTESIAN_POINT ( 'NONE',  ( -2.689684642336426700E-017, 2.000000000000000000, 0.0000000000000000000 ) ) ;
#106 = EDGE_LOOP ( 'NONE', ( #136, #293, #2 ) ) ;
#107 = AXIS2_PLACEMENT_3D ( 'NONE', #311, #115, #223 ) ;
#108 = FACE_OUTER_BOUND ( 'NONE', #274, .T. ) ;
#109 = ADVANCED_FACE ( 'NONE', ( #74 ), #284, .T. ) ;
#110 = CIRCLE ( 'NONE', #286, 4.900000000000001200 ) ;
#111 = ORIENTED_EDGE ( 'NONE', *, *, #204, .T. ) ;
#112 = DIRECTION ( 'NONE',  ( -1.000000000000000000, 0.0000000000000000000, 0.0000000000000000000 ) ) ;
#113 = CARTESIAN_POINT ( 'NONE',  ( -7.034821647829372800E-016, 12.00000000000000000, 0.0000000000000000000 ) ) ;
#114 = ORIENTED_EDGE ( 'NONE', *, *, #121, .T. ) ;
#115 = DIRECTION ( 'NONE',  ( -6.765853183595730600E-017, 1.000000000000000000, -0.0000000000000000000 ) ) ;
#116 = EDGE_LOOP ( 'NONE', ( #347, #354, #145, #194 ) ) ;
#117 = DIRECTION ( 'NONE',  ( 0.0000000000000000000, 0.0000000000000000000, 1.000000000000000000 ) ) ;
#118 = AXIS2_PLACEMENT_3D ( 'NONE', #103, #99, #190 ) ;
#119 =( LENGTH_UNIT ( ) NAMED_UNIT ( * ) SI_UNIT ( .MILLI., .METRE. ) );
#120 = SURFACE_STYLE_USAGE ( .BOTH. , #232 ) ;
#121 = EDGE_CURVE ( 'NONE', #259, #215, #96, .T. ) ;
#122 = SURFACE_STYLE_FILL_AREA ( #271 ) ;
#123 = ORIENTED_EDGE ( 'NONE', *, *, #132, .F. ) ;
#124 = PRODUCT_DEFINITION_SHAPE ( 'NONE', 'NONE',  #139 ) ;
#125 = ORIENTED_EDGE ( 'NONE', *, *, #340, .T. ) ;
#126 =( NAMED_UNIT ( * ) PLANE_ANGLE_UNIT ( ) SI_UNIT ( $, .RADIAN. ) );
#127 = LINE ( 'NONE', #225, #101 ) ;
#128 = ORIENTED_EDGE ( 'NONE', *, *, #283, .T. ) ;
#129 = DIRECTION ( 'NONE',  ( -1.000000000000000000, -6.765853183595730600E-017, 0.0000000000000000000 ) ) ;
#130 = SURFACE_STYLE_FILL_AREA ( #27 ) ;
#131 = EDGE_CURVE ( 'NONE', #259, #57, #235, .T. ) ;
#132 = EDGE_CURVE ( 'NONE', #173, #177, #110, .T. ) ;
#133 = DIRECTION ( 'NONE',  ( -1.000000000000000000, 0.0000000000000000000, 0.0000000000000000000 ) ) ;
#134 = DIRECTION ( 'NONE',  ( -6.765853183595730600E-017, 1.000000000000000000, -0.0000000000000000000 ) ) ;
#135 = EDGE_LOOP ( 'NONE', ( #128, #125 ) ) ;
#136 = ORIENTED_EDGE ( 'NONE', *, *, #288, .F. ) ;
#137 = DIRECTION ( 'NONE',  ( -1.000000000000000000, 0.0000000000000000000, -1.224646799147353200E-016 ) ) ;
#138 = CARTESIAN_POINT ( 'NONE',  ( -9.538187325759797500E-016, 15.70000000000000600, 0.0000000000000000000 ) ) ;
#139 = PRODUCT_DEFINITION ( 'UNKNOWN', '', #263, #195 ) ;
#140 = CARTESIAN_POINT ( 'NONE',  ( -7.034821647829372800E-016, 12.00000000000000000, 0.0000000000000000000 ) ) ;
#141 = CONICAL_SURFACE ( 'NONE', #118, 5.350000000000002300, 0.3142318990843380700 ) ;
#142 = EDGE_LOOP ( 'NONE', ( #201, #10, #156, #162 ) ) ;
#143 = DIRECTION ( 'NONE',  ( 1.224646799147353200E-016, 8.285780444791440900E-033, -1.000000000000000000 ) ) ;
#144 = AXIS2_PLACEMENT_3D ( 'NONE', #184, #5, #213 ) ;
#145 = ORIENTED_EDGE ( 'NONE', *, *, #39, .F. ) ;
#146 = VECTOR ( 'NONE', #70, 1000.000000000000200 ) ;
#147 = DIRECTION ( 'NONE',  ( -1.000000000000000000, 0.0000000000000000000, 0.0000000000000000000 ) ) ;
#148 = EDGE_CURVE ( 'NONE', #253, #322, #277, .T. ) ;
#149 = CIRCLE ( 'NONE', #278, 23.43749999999996400 ) ;
#150 = LINE ( 'NONE', #247, #67 ) ;
#151 = PLANE ( 'NONE',  #34 ) ;
#152 = CIRCLE ( 'NONE', #237, 4.900000000000001200 ) ;
#153 = ORIENTED_EDGE ( 'NONE', *, *, #77, .F. ) ;
#154 = ORIENTED_EDGE ( 'NONE', *, *, #131, .F. ) ;
#155 = CYLINDRICAL_SURFACE ( 'NONE', #200, 8.250000000000001800 ) ;
#156 = ORIENTED_EDGE ( 'NONE', *, *, #165, .T. ) ;
#157 = CARTESIAN_POINT ( 'NONE',  ( 1.084202172485504400E-016, 0.0000000000000000000, 0.0000000000000000000 ) ) ;
#158 = ADVANCED_FACE ( 'NONE', ( #264, #364 ), #62, .F. ) ;
#159 = CARTESIAN_POINT ( 'NONE',  ( 8.250000000000001800, 12.00000000000000000, 1.010333609296566900E-015 ) ) ;
#160 = AXIS2_PLACEMENT_3D ( 'NONE', #138, #163, #387 ) ;
#161 = DIRECTION ( 'NONE',  ( -6.765853183595730600E-017, 1.000000000000000000, -0.0000000000000000000 ) ) ;
#162 = ORIENTED_EDGE ( 'NONE', *, *, #121, .F. ) ;
#163 = DIRECTION ( 'NONE',  ( -6.765853183595730600E-017, 1.000000000000000000, -0.0000000000000000000 ) ) ;
#164 = ORIENTED_EDGE ( 'NONE', *, *, #39, .T. ) ;
#165 = EDGE_CURVE ( 'NONE', #345, #215, #323, .T. ) ;
#166 = DIRECTION ( 'NONE',  ( -1.000000000000000000, -6.765853183595730600E-017, 0.0000000000000000000 ) ) ;
#167 = ADVANCED_FACE ( 'NONE', ( #245 ), #4, .T. ) ;
#168 = AXIS2_PLACEMENT_3D ( 'NONE', #46, #303, #49 ) ;
#169 = DIRECTION ( 'NONE',  ( 1.000000000000000000, 7.663052351084746500E-017, 0.0000000000000000000 ) ) ;
#170 = FACE_OUTER_BOUND ( 'NONE', #310, .T. ) ;
#171 = CARTESIAN_POINT ( 'NONE',  ( 0.0000000000000000000, 0.0000000000000000000, 0.0000000000000000000 ) ) ;
#172 = DIRECTION ( 'NONE',  ( 0.0000000000000000000, 0.0000000000000000000, -1.000000000000000000 ) ) ;
#173 = VERTEX_POINT ( 'NONE', #196 ) ;
#174 =( NAMED_UNIT ( * ) SI_UNIT ( $, .STERADIAN. ) SOLID_ANGLE_UNIT ( ) );
#175 = AXIS2_PLACEMENT_3D ( 'NONE', #140, #256, #9 ) ;
#176 = APPLICATION_PROTOCOL_DEFINITION ( 'draft international standard', 'automotive_design', 1998, #207 ) ;
#177 = VERTEX_POINT ( 'NONE', #254 ) ;
#178 = ORIENTED_EDGE ( 'NONE', *, *, #283, .F. ) ;
#179 = DIRECTION ( 'NONE',  ( -1.000000000000000000, -6.765853183595730600E-017, 0.0000000000000000000 ) ) ;
#180 = AXIS2_PLACEMENT_3D ( 'NONE', #64, #32, #344 ) ;
#181 = MECHANICAL_DESIGN_GEOMETRIC_PRESENTATION_REPRESENTATION (  '', ( #61 ), #224 ) ;
#182 = VERTEX_POINT ( 'NONE', #218 ) ;
#183 = SPHERICAL_SURFACE ( 'NONE', #373, 22.63749999999997100 ) ;
#184 = CARTESIAN_POINT ( 'NONE',  ( -9.064577602908091900E-016, 15.00000000000000200, 0.0000000000000000000 ) ) ;
#185 = VECTOR ( 'NONE', #98, 1000.000000000000000 ) ;
#186 = ORIENTED_EDGE ( 'NONE', *, *, #188, .F. ) ;
#187 = DIRECTION ( 'NONE',  ( -6.765853183595730600E-017, 1.000000000000000000, -0.0000000000000000000 ) ) ;
#188 = EDGE_CURVE ( 'NONE', #379, #253, #150, .T. ) ;
#189 = ADVANCED_FACE ( 'NONE', ( #170 ), #320, .T. ) ;
#190 = DIRECTION ( 'NONE',  ( -1.000000000000000000, -6.765853183595730600E-017, 0.0000000000000000000 ) ) ;
#191 = ORIENTED_EDGE ( 'NONE', *, *, #63, .T. ) ;
#192 = EDGE_LOOP ( 'NONE', ( #330, #231, #178, #205 ) ) ;
#193 = DIRECTION ( 'NONE',  ( -6.765853183595730600E-017, 1.000000000000000000, 0.0000000000000000000 ) ) ;
#194 = ORIENTED_EDGE ( 'NONE', *, *, #165, .F. ) ;
#195 = PRODUCT_DEFINITION_CONTEXT ( 'detailed design', #207, 'design' ) ;
#196 = CARTESIAN_POINT ( 'NONE',  ( -4.900000000000001200, -3.315268059961908800E-016, 0.0000000000000000000 ) ) ;
#197 = DIRECTION ( 'NONE',  ( 1.000000000000000000, 7.401486830834387600E-017, 0.0000000000000000000 ) ) ;
#198 = COLOUR_RGB ( '',0.7529411764705882200, 0.7529411764705882200, 0.7529411764705882200 ) ;
#199 = CARTESIAN_POINT ( 'NONE',  ( 2.686568915629501100E-015, -6.937499999999962700, 0.0000000000000000000 ) ) ;
#200 = AXIS2_PLACEMENT_3D ( 'NONE', #380, #238, #133 ) ;
#201 = ORIENTED_EDGE ( 'NONE', *, *, #334, .F. ) ;
#202 = FACE_OUTER_BOUND ( 'NONE', #192, .T. ) ;
#203 = EDGE_LOOP ( 'NONE', ( #69, #290, #285, #20 ) ) ;
#204 = EDGE_CURVE ( 'NONE', #242, #322, #397, .T. ) ;
#205 = ORIENTED_EDGE ( 'NONE', *, *, #55, .F. ) ;
#206 = AXIS2_PLACEMENT_3D ( 'NONE', #43, #250, #329 ) ;
#207 = APPLICATION_CONTEXT ( 'automotive_design' ) ;
#208 = MECHANICAL_DESIGN_GEOMETRIC_PRESENTATION_REPRESENTATION (  '', ( #316 ), #31 ) ;
#209 = EDGE_LOOP ( 'NONE', ( #339, #308 ) ) ;
#210 =( LENGTH_UNIT ( ) NAMED_UNIT ( * ) SI_UNIT ( .MILLI., .METRE. ) );
#211 = AXIS2_PLACEMENT_3D ( 'NONE', #377, #187, #89 ) ;
#212 = UNCERTAINTY_MEASURE_WITH_UNIT (LENGTH_MEASURE( 1.000000000000000100E-005 ), #119, 'distance_accuracy_value', 'NONE');
#213 = DIRECTION ( 'NONE',  ( -1.000000000000000000, 0.0000000000000000000, 0.0000000000000000000 ) ) ;
#214 = DIRECTION ( 'NONE',  ( -6.765853183595730600E-017, 1.000000000000000000, -0.0000000000000000000 ) ) ;
#215 = VERTEX_POINT ( 'NONE', #295 ) ;
#216 = FACE_OUTER_BOUND ( 'NONE', #116, .T. ) ;
#217 = PRODUCT ( '2029517_KSTP1', '2029517_KSTP1', '', ( #280 ) ) ;
#218 = CARTESIAN_POINT ( 'NONE',  ( 4.900000000000001200, 15.16332365546587700, 6.000769315822032700E-016 ) ) ;
#219 = CLOSED_SHELL ( 'NONE', ( #352, #72, #109, #255, #12, #167, #248, #76, #252, #359, #299, #357, #158, #189 ) ) ;
#220 = EDGE_CURVE ( 'NONE', #322, #23, #378, .T. ) ;
#221 = CARTESIAN_POINT ( 'NONE',  ( 6.000000000000001800, 12.00000000000000000, 0.0000000000000000000 ) ) ;
#222 = VECTOR ( 'NONE', #214, 1000.000000000000000 ) ;
#223 = DIRECTION ( 'NONE',  ( -1.000000000000000000, -7.228014483236694600E-017, 0.0000000000000000000 ) ) ;
#224 =( GEOMETRIC_REPRESENTATION_CONTEXT ( 3 ) GLOBAL_UNCERTAINTY_ASSIGNED_CONTEXT ( ( #212 ) ) GLOBAL_UNIT_ASSIGNED_CONTEXT ( ( #119, #317, #275 ) ) REPRESENTATION_CONTEXT ( 'NONE', 'WORKASPACE' ) );
#225 = CARTESIAN_POINT ( 'NONE',  ( 8.250000000000000000, 15.70000000000000600, 1.010333609296566700E-015 ) ) ;
#226 = EDGE_CURVE ( 'NONE', #215, #57, #149, .T. ) ;
#227 = ORIENTED_EDGE ( 'NONE', *, *, #343, .T. ) ;
#228 = CARTESIAN_POINT ( 'NONE',  ( -9.538187325759797500E-016, 15.70000000000000600, 0.0000000000000000000 ) ) ;
#229 = FACE_OUTER_BOUND ( 'NONE', #106, .T. ) ;
#230 = CARTESIAN_POINT ( 'NONE',  ( 4.900000000000000400, 15.70000000000000600, 6.000769315822032700E-016 ) ) ;
#231 = ORIENTED_EDGE ( 'NONE', *, *, #220, .T. ) ;
#232 = SURFACE_SIDE_STYLE ('',( #130 ) ) ;
#233 = DIRECTION ( 'NONE',  ( 1.000000000000000000, 0.0000000000000000000, 0.0000000000000000000 ) ) ;
#234 = EDGE_CURVE ( 'NONE', #51, #345, #362, .T. ) ;
#235 = CIRCLE ( 'NONE', #266, 23.43749999999996400 ) ;
#236 = CARTESIAN_POINT ( 'NONE',  ( 1.084202172485504400E-016, 0.0000000000000000000, 0.0000000000000000000 ) ) ;
#237 = AXIS2_PLACEMENT_3D ( 'NONE', #157, #384, #129 ) ;
#238 = DIRECTION ( 'NONE',  ( -6.765853183595730600E-017, 1.000000000000000000, -0.0000000000000000000 ) ) ;
#239 = AXIS2_PLACEMENT_3D ( 'NONE', #38, #16, #298 ) ;
#240 = CYLINDRICAL_SURFACE ( 'NONE', #160, 4.900000000000001200 ) ;
#241 = CYLINDRICAL_SURFACE ( 'NONE', #168, 8.250000000000001800 ) ;
#242 = VERTEX_POINT ( 'NONE', #11 ) ;
#243 = EDGE_CURVE ( 'NONE', #345, #51, #276, .T. ) ;
#244 = DIRECTION ( 'NONE',  ( -1.000000000000000000, -6.765853183595730600E-017, 0.0000000000000000000 ) ) ;
#245 = FACE_OUTER_BOUND ( 'NONE', #95, .T. ) ;
#246 = CARTESIAN_POINT ( 'NONE',  ( 4.900000000000001200, 6.131725528361922700E-017, 0.0000000000000000000 ) ) ;
#247 = CARTESIAN_POINT ( 'NONE',  ( -5.350000000000002300, -3.619731453223717700E-016, 0.0000000000000000000 ) ) ;
#248 = ADVANCED_FACE ( 'NONE', ( #346 ), #141, .T. ) ;
#249 = DIRECTION ( 'NONE',  ( 1.224646799147353200E-016, 8.285780444791440900E-033, -1.000000000000000000 ) ) ;
#250 = DIRECTION ( 'NONE',  ( -6.765853183595730600E-017, 1.000000000000000000, -0.0000000000000000000 ) ) ;
#251 = ORIENTED_EDGE ( 'NONE', *, *, #83, .T. ) ;
#252 = ADVANCED_FACE ( 'NONE', ( #35 ), #240, .F. ) ;
#253 = VERTEX_POINT ( 'NONE', #47 ) ;
#254 = CARTESIAN_POINT ( 'NONE',  ( 4.900000000000001200, 3.315268059961908800E-016, 6.000769315822032700E-016 ) ) ;
#255 = ADVANCED_FACE ( 'NONE', ( #229 ), #183, .F. ) ;
#256 = DIRECTION ( 'NONE',  ( -6.765853183595730600E-017, 1.000000000000000000, -0.0000000000000000000 ) ) ;
#257 = DIRECTION ( 'NONE',  ( -1.000000000000000000, 0.0000000000000000000, -1.224646799147353200E-016 ) ) ;
#258 = ORIENTED_EDGE ( 'NONE', *, *, #132, .T. ) ;
#259 = VERTEX_POINT ( 'NONE', #356 ) ;
#260 = EDGE_CURVE ( 'NONE', #97, #42, #261, .T. ) ;
#261 = CIRCLE ( 'NONE', #385, 22.63749999999997100 ) ;
#262 = CARTESIAN_POINT ( 'NONE',  ( -8.250000000000001800, 12.00000000000000000, 0.0000000000000000000 ) ) ;
#263 = PRODUCT_DEFINITION_FORMATION_WITH_SPECIFIED_SOURCE ( 'ANY', '', #217, .NOT_KNOWN. ) ;
#264 = FACE_OUTER_BOUND ( 'NONE', #209, .T. ) ;
#265 = EDGE_LOOP ( 'NONE', ( #114, #50, #154 ) ) ;
#266 = AXIS2_PLACEMENT_3D ( 'NONE', #75, #389, #358 ) ;
#267 = CARTESIAN_POINT ( 'NONE',  ( 2.686568915629501100E-015, -6.937499999999962700, 0.0000000000000000000 ) ) ;
#268 = DIRECTION ( 'NONE',  ( -1.000000000000000000, 0.0000000000000000000, 0.0000000000000000000 ) ) ;
#269 = ORIENTED_EDGE ( 'NONE', *, *, #59, .T. ) ;
#270 = AXIS2_PLACEMENT_3D ( 'NONE', #363, #306, #169 ) ;
#271 = FILL_AREA_STYLE ('',( #394 ) ) ;
#272 = FILL_AREA_STYLE_COLOUR ( '', #90 ) ;
#273 = EDGE_CURVE ( 'NONE', #182, #97, #360, .T. ) ;
#274 = EDGE_LOOP ( 'NONE', ( #93, #164, #40 ) ) ;
#275 =( NAMED_UNIT ( * ) SI_UNIT ( $, .STERADIAN. ) SOLID_ANGLE_UNIT ( ) );
#276 = CIRCLE ( 'NONE', #206, 8.250000000000001800 ) ;
#277 = CIRCLE ( 'NONE', #71, 6.000000000000001800 ) ;
#278 = AXIS2_PLACEMENT_3D ( 'NONE', #73, #249, #137 ) ;
#279 = SHAPE_DEFINITION_REPRESENTATION ( #124, #300 ) ;
#280 = PRODUCT_CONTEXT ( 'NONE', #86, 'mechanical' ) ;
#281 = CARTESIAN_POINT ( 'NONE',  ( -9.064577602908091900E-016, 15.00000000000000200, 0.0000000000000000000 ) ) ;
#282 = DIRECTION ( 'NONE',  ( 1.000000000000000000, 7.401486830834387600E-017, 0.0000000000000000000 ) ) ;
#283 = EDGE_CURVE ( 'NONE', #321, #23, #401, .T. ) ;
#284 = SPHERICAL_SURFACE ( 'NONE', #54, 23.43749999999996400 ) ;
#285 = ORIENTED_EDGE ( 'NONE', *, *, #273, .T. ) ;
#286 = AXIS2_PLACEMENT_3D ( 'NONE', #301, #134, #15 ) ;
#287 = FACE_BOUND ( 'NONE', #60, .T. ) ;
#288 = EDGE_CURVE ( 'NONE', #97, #182, #13, .T. ) ;
#289 = DIRECTION ( 'NONE',  ( -6.765853183595730600E-017, 1.000000000000000000, -0.0000000000000000000 ) ) ;
#290 = ORIENTED_EDGE ( 'NONE', *, *, #17, .T. ) ;
#291 = PRESENTATION_LAYER_ASSIGNMENT (  '', '', ( #61 ) ) ;
#292 = UNCERTAINTY_MEASURE_WITH_UNIT (LENGTH_MEASURE( 1.000000000000000100E-005 ), #210, 'distance_accuracy_value', 'NONE');
#293 = ORIENTED_EDGE ( 'NONE', *, *, #260, .T. ) ;
#294 = VECTOR ( 'NONE', #289, 1000.000000000000000 ) ;
#295 = CARTESIAN_POINT ( 'NONE',  ( -8.250000000000000000, 15.00000000000000000, -1.010333609296566500E-015 ) ) ;
#296 = ORIENTED_EDGE ( 'NONE', *, *, #220, .F. ) ;
#297 = DIRECTION ( 'NONE',  ( -6.765853183595730600E-017, 1.000000000000000000, -0.0000000000000000000 ) ) ;
#298 = DIRECTION ( 'NONE',  ( -1.000000000000000000, 0.0000000000000000000, 0.0000000000000000000 ) ) ;
#299 = ADVANCED_FACE ( 'NONE', ( #108 ), #66, .T. ) ;
#300 = ADVANCED_BREP_SHAPE_REPRESENTATION ( '2029517_KSTP1', ( #26, #304 ), #28 ) ;
#301 = CARTESIAN_POINT ( 'NONE',  ( 1.084202172485504400E-016, 0.0000000000000000000, 0.0000000000000000000 ) ) ;
#302 = CIRCLE ( 'NONE', #211, 5.350000000000002300 ) ;
#303 = DIRECTION ( 'NONE',  ( -6.765853183595730600E-017, 1.000000000000000000, -0.0000000000000000000 ) ) ;
#304 = AXIS2_PLACEMENT_3D ( 'NONE', #171, #117, #233 ) ;
#305 = CARTESIAN_POINT ( 'NONE',  ( -7.034821647829372800E-016, 12.00000000000000000, 0.0000000000000000000 ) ) ;
#306 = DIRECTION ( 'NONE',  ( 0.0000000000000000000, 0.0000000000000000000, -1.000000000000000000 ) ) ;
#307 = ORIENTED_EDGE ( 'NONE', *, *, #204, .F. ) ;
#308 = ORIENTED_EDGE ( 'NONE', *, *, #234, .F. ) ;
#309 = EDGE_LOOP ( 'NONE', ( #153, #29 ) ) ;
#310 = EDGE_LOOP ( 'NONE', ( #296, #227, #386, #14 ) ) ;
#311 = CARTESIAN_POINT ( 'NONE',  ( -2.689684642336426700E-017, 2.000000000000000000, 0.0000000000000000000 ) ) ;
#312 = APPLICATION_PROTOCOL_DEFINITION ( 'draft international standard', 'automotive_design', 1998, #86 ) ;
#313 = AXIS2_PLACEMENT_3D ( 'NONE', #113, #84, #368 ) ;
#314 = LINE ( 'NONE', #1, #294 ) ;
#315 = SURFACE_STYLE_USAGE ( .BOTH. , #400 ) ;
#316 = STYLED_ITEM ( 'NONE', ( #41 ), #26 ) ;
#317 =( NAMED_UNIT ( * ) PLANE_ANGLE_UNIT ( ) SI_UNIT ( $, .RADIAN. ) );
#318 =( NAMED_UNIT ( * ) PLANE_ANGLE_UNIT ( ) SI_UNIT ( $, .RADIAN. ) );
#319 = ORIENTED_EDGE ( 'NONE', *, *, #260, .F. ) ;
#320 = CYLINDRICAL_SURFACE ( 'NONE', #239, 6.000000000000001800 ) ;
#321 = VERTEX_POINT ( 'NONE', #52 ) ;
#322 = VERTEX_POINT ( 'NONE', #24 ) ;
#323 = LINE ( 'NONE', #100, #222 ) ;
#324 = DIRECTION ( 'NONE',  ( -6.765853183595730600E-017, 1.000000000000000000, 0.0000000000000000000 ) ) ;
#325 =( NAMED_UNIT ( * ) SI_UNIT ( $, .STERADIAN. ) SOLID_ANGLE_UNIT ( ) );
#326 = CIRCLE ( 'NONE', #107, 6.000000000000001800 ) ;
#327 = FACE_OUTER_BOUND ( 'NONE', #371, .T. ) ;
#328 = DIRECTION ( 'NONE',  ( -0.3090860723375579700, 0.9510340687309482000, 0.0000000000000000000 ) ) ;
#329 = DIRECTION ( 'NONE',  ( -1.000000000000000000, 0.0000000000000000000, 0.0000000000000000000 ) ) ;
#330 = ORIENTED_EDGE ( 'NONE', *, *, #148, .T. ) ;
#331 = AXIS2_PLACEMENT_3D ( 'NONE', #236, #92, #179 ) ;
#332 = DIRECTION ( 'NONE',  ( -1.000000000000000000, -7.228014483236694600E-017, 0.0000000000000000000 ) ) ;
#333 = CARTESIAN_POINT ( 'NONE',  ( -5.350000000000002300, -3.619731453223717700E-016, 0.0000000000000000000 ) ) ;
#334 = EDGE_CURVE ( 'NONE', #51, #259, #127, .T. ) ;
#335 = VECTOR ( 'NONE', #85, 1000.000000000000000 ) ;
#336 = DIRECTION ( 'NONE',  ( -6.765853183595730600E-017, 1.000000000000000000, -0.0000000000000000000 ) ) ;
#337 = CARTESIAN_POINT ( 'NONE',  ( -9.175079990337120100E-016, 15.16332365546587700, 0.0000000000000000000 ) ) ;
#338 = DIRECTION ( 'NONE',  ( -6.765853183595730600E-017, 1.000000000000000000, -0.0000000000000000000 ) ) ;
#339 = ORIENTED_EDGE ( 'NONE', *, *, #243, .F. ) ;
#340 = EDGE_CURVE ( 'NONE', #23, #321, #341, .T. ) ;
#341 = CIRCLE ( 'NONE', #313, 6.000000000000002700 ) ;
#342 = CARTESIAN_POINT ( 'NONE',  ( -6.000000000000002700, 15.70000000000000600, 0.0000000000000000000 ) ) ;
#343 = EDGE_CURVE ( 'NONE', #322, #253, #326, .T. ) ;
#344 = DIRECTION ( 'NONE',  ( 1.000000000000000000, 0.0000000000000000000, 0.0000000000000000000 ) ) ;
#345 = VERTEX_POINT ( 'NONE', #262 ) ;
#346 = FACE_OUTER_BOUND ( 'NONE', #382, .T. ) ;
#347 = ORIENTED_EDGE ( 'NONE', *, *, #243, .T. ) ;
#348 = FACE_OUTER_BOUND ( 'NONE', #309, .T. ) ;
#349 = AXIS2_PLACEMENT_3D ( 'NONE', #228, #87, #53 ) ;
#350 = DIRECTION ( 'NONE',  ( -1.000000000000000000, 0.0000000000000000000, 0.0000000000000000000 ) ) ;
#351 = DIRECTION ( 'NONE',  ( -6.765853183595730600E-017, 1.000000000000000000, -0.0000000000000000000 ) ) ;
#352 = ADVANCED_FACE ( 'NONE', ( #202 ), #91, .T. ) ;
#353 = CARTESIAN_POINT ( 'NONE',  ( 6.000000000000000900, 15.70000000000000600, 7.347880794884121700E-016 ) ) ;
#354 = ORIENTED_EDGE ( 'NONE', *, *, #334, .T. ) ;
#355 = ORIENTED_EDGE ( 'NONE', *, *, #94, .T. ) ;
#356 = CARTESIAN_POINT ( 'NONE',  ( 8.250000000000000000, 15.00000000000000000, 0.0000000000000000000 ) ) ;
#357 = ADVANCED_FACE ( 'NONE', ( #81 ), #241, .T. ) ;
#358 = DIRECTION ( 'NONE',  ( 1.000000000000000000, 0.0000000000000000000, 0.0000000000000000000 ) ) ;
#359 = ADVANCED_FACE ( 'NONE', ( #327 ), #370, .F. ) ;
#360 = CIRCLE ( 'NONE', #22, 4.900000000000002100 ) ;
#361 = FACE_OUTER_BOUND ( 'NONE', #203, .T. ) ;
#362 = CIRCLE ( 'NONE', #175, 8.250000000000001800 ) ;
#363 = CARTESIAN_POINT ( 'NONE',  ( 2.686568915629501100E-015, -6.937499999999962700, 0.0000000000000000000 ) ) ;
#364 = FACE_BOUND ( 'NONE', #135, .T. ) ;
#365 = ORIENTED_EDGE ( 'NONE', *, *, #188, .T. ) ;
#366 = AXIS2_PLACEMENT_3D ( 'NONE', #8, #104, #44 ) ;
#367 = CARTESIAN_POINT ( 'NONE',  ( 2.686568915629501100E-015, -6.937499999999962700, 0.0000000000000000000 ) ) ;
#368 = DIRECTION ( 'NONE',  ( -1.000000000000000000, 0.0000000000000000000, 0.0000000000000000000 ) ) ;
#369 = VECTOR ( 'NONE', #161, 1000.000000000000000 ) ;
#370 = SPHERICAL_SURFACE ( 'NONE', #270, 22.63749999999997100 ) ;
#371 = EDGE_LOOP ( 'NONE', ( #319, #102, #191 ) ) ;
#372 = DIRECTION ( 'NONE',  ( -6.765853183595730600E-017, 1.000000000000000000, -0.0000000000000000000 ) ) ;
#373 = AXIS2_PLACEMENT_3D ( 'NONE', #367, #172, #78 ) ;
#374 = CARTESIAN_POINT ( 'NONE',  ( 2.541095996977928400E-015, 15.70000000000000600, 0.0000000000000000000 ) ) ;
#375 = LINE ( 'NONE', #342, #185 ) ;
#376 = CARTESIAN_POINT ( 'NONE',  ( -4.900000000000003000, 15.16332365546587700, 0.0000000000000000000 ) ) ;
#377 = CARTESIAN_POINT ( 'NONE',  ( 1.084202172485504400E-016, 0.0000000000000000000, 0.0000000000000000000 ) ) ;
#378 = LINE ( 'NONE', #353, #369 ) ;
#379 = VERTEX_POINT ( 'NONE', #333 ) ;
#380 = CARTESIAN_POINT ( 'NONE',  ( -9.538187325759797500E-016, 15.70000000000000600, 0.0000000000000000000 ) ) ;
#381 = UNCERTAINTY_MEASURE_WITH_UNIT (LENGTH_MEASURE( 1.000000000000000100E-005 ), #82, 'distance_accuracy_value', 'NONE');
#382 = EDGE_LOOP ( 'NONE', ( #307, #269, #365, #65 ) ) ;
#383 = CIRCLE ( 'NONE', #48, 8.250000000000003600 ) ;
#384 = DIRECTION ( 'NONE',  ( -6.765853183595730600E-017, 1.000000000000000000, -0.0000000000000000000 ) ) ;
#385 = AXIS2_PLACEMENT_3D ( 'NONE', #267, #143, #257 ) ;
#386 = ORIENTED_EDGE ( 'NONE', *, *, #55, .T. ) ;
#387 = DIRECTION ( 'NONE',  ( -1.000000000000000000, 0.0000000000000000000, 0.0000000000000000000 ) ) ;
#388 = PRODUCT_RELATED_PRODUCT_CATEGORY ( 'part', '', ( #217 ) ) ;
#389 = DIRECTION ( 'NONE',  ( 0.0000000000000000000, 0.0000000000000000000, 1.000000000000000000 ) ) ;
#390 = ORIENTED_EDGE ( 'NONE', *, *, #288, .T. ) ;
#391 = CIRCLE ( 'NONE', #180, 22.63749999999997100 ) ;
#392 = AXIS2_PLACEMENT_3D ( 'NONE', #221, #193, #166 ) ;
#393 = DIRECTION ( 'NONE',  ( -1.000000000000000000, 0.0000000000000000000, 0.0000000000000000000 ) ) ;
#394 = FILL_AREA_STYLE_COLOUR ( '', #198 ) ;
#395 = DIRECTION ( 'NONE',  ( -6.765853183595730600E-017, 1.000000000000000000, -0.0000000000000000000 ) ) ;
#396 = CARTESIAN_POINT ( 'NONE',  ( -9.175079990337120100E-016, 15.16332365546587700, 0.0000000000000000000 ) ) ;
#397 = LINE ( 'NONE', #68, #146 ) ;
#398 = ORIENTED_EDGE ( 'NONE', *, *, #77, .T. ) ;
#399 = DIRECTION ( 'NONE',  ( -6.765853183595730600E-017, 1.000000000000000000, -0.0000000000000000000 ) ) ;
#400 = SURFACE_SIDE_STYLE ('',( #122 ) ) ;
#401 = CIRCLE ( 'NONE', #37, 6.000000000000002700 ) ;
#402 = CARTESIAN_POINT ( 'NONE',  ( 6.000000000000001800, 12.00000000000000000, 7.347880794884121700E-016 ) ) ;
ENDSEC;
END-ISO-10303-21;
