ISO-10303-21;
HEADER;
FILE_DESCRIPTION (( 'STEP AP214' ),
    '1' );
FILE_NAME ('2029514_KSTP1.stp',
    '2018-09-10T11:55:33',
    ( '' ),
    ( '' ),
    'SwSTEP 2.0',
    'SolidWorks 2016',
    '' );
FILE_SCHEMA (( 'AUTOMOTIVE_DESIGN' ));
ENDSEC;

DATA;
#1 = EDGE_CURVE ( 'NONE', #329, #14, #279, .T. ) ;
#2 = ADVANCED_FACE ( 'NONE', ( #114 ), #39, .T. ) ;
#3 = DIRECTION ( 'NONE',  ( 1.224646799147353200E-016, 8.016721641842666900E-033, -1.000000000000000000 ) ) ;
#4 = ORIENTED_EDGE ( 'NONE', *, *, #1, .T. ) ;
#5 = DIRECTION ( 'NONE',  ( -1.000000000000000000, -6.546149998043696100E-017, 0.0000000000000000000 ) ) ;
#6 = CYLINDRICAL_SURFACE ( 'NONE', #266, 4.750000000000000900 ) ;
#7 = DIRECTION ( 'NONE',  ( -6.546149998043697300E-017, 1.000000000000000000, -0.0000000000000000000 ) ) ;
#8 = CARTESIAN_POINT ( 'NONE',  ( 6.750000000000000900, 15.19999999999999900, 8.266365894244636300E-016 ) ) ;
#9 = AXIS2_PLACEMENT_3D ( 'NONE', #349, #287, #13 ) ;
#10 = EDGE_CURVE ( 'NONE', #195, #158, #255, .T. ) ;
#11 = VECTOR ( 'NONE', #282, 1000.000000000000000 ) ;
#12 = CARTESIAN_POINT ( 'NONE',  ( -8.735022824580038800E-016, 14.99999999999999800, 0.0000000000000000000 ) ) ;
#13 = DIRECTION ( 'NONE',  ( 1.000000000000000000, 7.451161239095023000E-017, 0.0000000000000000000 ) ) ;
#14 = VERTEX_POINT ( 'NONE', #201 ) ;
#15 = CARTESIAN_POINT ( 'NONE',  ( 3.650000000000000400, 2.389344749285949300E-016, 4.469960816887840400E-016 ) ) ;
#16 = ORIENTED_EDGE ( 'NONE', *, *, #30, .T. ) ;
#17 = DIRECTION ( 'NONE',  ( -1.000000000000000000, -9.130123557772667100E-017, 0.0000000000000000000 ) ) ;
#18 = CARTESIAN_POINT ( 'NONE',  ( -4.100000000000001400, -2.683921499197916500E-016, 0.0000000000000000000 ) ) ;
#19 = EDGE_LOOP ( 'NONE', ( #4, #304 ) ) ;
#20 = ORIENTED_EDGE ( 'NONE', *, *, #348, .F. ) ;
#21 = DIRECTION ( 'NONE',  ( -6.546149998043697300E-017, 1.000000000000000000, -0.0000000000000000000 ) ) ;
#22 = VERTEX_POINT ( 'NONE', #81 ) ;
#23 = DIRECTION ( 'NONE',  ( 1.000000000000000000, 0.0000000000000000000, 0.0000000000000000000 ) ) ;
#24 = CARTESIAN_POINT ( 'NONE',  ( 4.750000000000000000, 15.19999999999999900, 5.817072295949928400E-016 ) ) ;
#25 = CARTESIAN_POINT ( 'NONE',  ( 2.728666149350191300E-015, -7.281249999999962700, 0.0000000000000000000 ) ) ;
#26 = AXIS2_PLACEMENT_3D ( 'NONE', #135, #162, #161 ) ;
#27 = COLOUR_RGB ( '',0.7529411764705882200, 0.7529411764705882200, 0.7529411764705882200 ) ;
#28 = ORIENTED_EDGE ( 'NONE', *, *, #280, .T. ) ;
#29 = SURFACE_STYLE_FILL_AREA ( #106 ) ;
#30 = EDGE_CURVE ( 'NONE', #22, #99, #129, .T. ) ;
#31 = PLANE ( 'NONE',  #218 ) ;
#32 = ORIENTED_EDGE ( 'NONE', *, *, #83, .F. ) ;
#33 = VECTOR ( 'NONE', #325, 1000.000000000000200 ) ;
#34 = DIRECTION ( 'NONE',  ( -6.546149998043697300E-017, 1.000000000000000000, -0.0000000000000000000 ) ) ;
#35 = EDGE_LOOP ( 'NONE', ( #226, #285, #236, #91 ) ) ;
#36 = FACE_OUTER_BOUND ( 'NONE', #251, .T. ) ;
#37 = AXIS2_PLACEMENT_3D ( 'NONE', #48, #42, #318 ) ;
#38 = SURFACE_STYLE_FILL_AREA ( #261 ) ;
#39 = CONICAL_SURFACE ( 'NONE', #172, 4.100000000000001400, 0.3142318990843380700 ) ;
#40 = CIRCLE ( 'NONE', #366, 4.750000000000000900 ) ;
#41 = DIRECTION ( 'NONE',  ( -6.546149998043697300E-017, 1.000000000000000000, -0.0000000000000000000 ) ) ;
#42 = DIRECTION ( 'NONE',  ( -6.546149998043697300E-017, 1.000000000000000000, -0.0000000000000000000 ) ) ;
#43 = ORIENTED_EDGE ( 'NONE', *, *, #62, .F. ) ;
#44 = DIRECTION ( 'NONE',  ( -1.000000000000000000, -6.546149998043697300E-017, 0.0000000000000000000 ) ) ;
#45 = CYLINDRICAL_SURFACE ( 'NONE', #338, 6.750000000000001800 ) ;
#46 = ORIENTED_EDGE ( 'NONE', *, *, #148, .F. ) ;
#47 = PRODUCT_DEFINITION ( 'UNKNOWN', '', #373, #346 ) ;
#48 = CARTESIAN_POINT ( 'NONE',  ( 1.084202172485506400E-016, 0.0000000000000000000, 0.0000000000000000000 ) ) ;
#49 = EDGE_CURVE ( 'NONE', #258, #99, #87, .T. ) ;
#50 = APPLICATION_CONTEXT ( 'automotive_design' ) ;
#51 = ORIENTED_EDGE ( 'NONE', *, *, #148, .T. ) ;
#52 =( NAMED_UNIT ( * ) PLANE_ANGLE_UNIT ( ) SI_UNIT ( $, .RADIAN. ) );
#53 = PRODUCT_CONTEXT ( 'NONE', #54, 'mechanical' ) ;
#54 = APPLICATION_CONTEXT ( 'automotive_design' ) ;
#55 =( NAMED_UNIT ( * ) SI_UNIT ( $, .STERADIAN. ) SOLID_ANGLE_UNIT ( ) );
#56 = CIRCLE ( 'NONE', #233, 6.750000000000001800 ) ;
#57 = ADVANCED_FACE ( 'NONE', ( #284 ), #324, .F. ) ;
#58 = DIRECTION ( 'NONE',  ( 0.0000000000000000000, 0.0000000000000000000, -1.000000000000000000 ) ) ;
#59 = AXIS2_PLACEMENT_3D ( 'NONE', #217, #97, #44 ) ;
#60 = EDGE_LOOP ( 'NONE', ( #20, #274, #51, #380 ) ) ;
#61 = CIRCLE ( 'NONE', #300, 22.48124999999996400 ) ;
#62 = EDGE_CURVE ( 'NONE', #152, #111, #196, .T. ) ;
#63 = CARTESIAN_POINT ( 'NONE',  ( -8.865945824540913900E-016, 15.19999999999999900, 0.0000000000000000000 ) ) ;
#64 = EDGE_LOOP ( 'NONE', ( #312, #281, #214, #232 ) ) ;
#65 = LINE ( 'NONE', #120, #364 ) ;
#66 = ORIENTED_EDGE ( 'NONE', *, *, #67, .F. ) ;
#67 = EDGE_CURVE ( 'NONE', #177, #111, #191, .T. ) ;
#68 = ORIENTED_EDGE ( 'NONE', *, *, #376, .F. ) ;
#69 = DIRECTION ( 'NONE',  ( -1.000000000000000000, 0.0000000000000000000, 0.0000000000000000000 ) ) ;
#70 = CYLINDRICAL_SURFACE ( 'NONE', #295, 4.750000000000000900 ) ;
#71 = ORIENTED_EDGE ( 'NONE', *, *, #268, .T. ) ;
#72 = CARTESIAN_POINT ( 'NONE',  ( -2.250278271232337700E-017, 2.000000000000000000, 0.0000000000000000000 ) ) ;
#73 = VECTOR ( 'NONE', #337, 1000.000000000000000 ) ;
#74 = PRESENTATION_LAYER_ASSIGNMENT (  '', '', ( #182 ) ) ;
#75 = DIRECTION ( 'NONE',  ( -6.546149998043697300E-017, 1.000000000000000000, -0.0000000000000000000 ) ) ;
#76 = SURFACE_SIDE_STYLE ('',( #29 ) ) ;
#77 = CIRCLE ( 'NONE', #382, 6.750000000000001800 ) ;
#78 = FILL_AREA_STYLE_COLOUR ( '', #341 ) ;
#79 = ADVANCED_FACE ( 'NONE', ( #127, #95 ), #31, .F. ) ;
#80 =( NAMED_UNIT ( * ) PLANE_ANGLE_UNIT ( ) SI_UNIT ( $, .RADIAN. ) );
#81 = CARTESIAN_POINT ( 'NONE',  ( 6.750000000000002700, 14.99999999999999800, 0.0000000000000000000 ) ) ;
#82 = ADVANCED_FACE ( 'NONE', ( #180 ), #378, .T. ) ;
#83 = EDGE_CURVE ( 'NONE', #14, #329, #123, .T. ) ;
#84 = DIRECTION ( 'NONE',  ( -1.000000000000000000, 0.0000000000000000000, 0.0000000000000000000 ) ) ;
#85 = DIRECTION ( 'NONE',  ( -1.000000000000000000, -6.546149998043697300E-017, 0.0000000000000000000 ) ) ;
#86 = ADVANCED_FACE ( 'NONE', ( #392 ), #70, .T. ) ;
#87 = CIRCLE ( 'NONE', #224, 23.28124999999996100 ) ;
#88 = EDGE_CURVE ( 'NONE', #219, #177, #311, .T. ) ;
#89 = DIRECTION ( 'NONE',  ( -6.546149998043697300E-017, 1.000000000000000000, -0.0000000000000000000 ) ) ;
#90 = CARTESIAN_POINT ( 'NONE',  ( 6.750000000000000900, 12.00000000000000000, 8.266365894244636300E-016 ) ) ;
#91 = ORIENTED_EDGE ( 'NONE', *, *, #280, .F. ) ;
#92 = AXIS2_PLACEMENT_3D ( 'NONE', #395, #190, #23 ) ;
#93 = EDGE_LOOP ( 'NONE', ( #390, #168, #16 ) ) ;
#94 = PRESENTATION_STYLE_ASSIGNMENT (( #256 ) ) ;
#95 = FACE_BOUND ( 'NONE', #320, .T. ) ;
#96 = EDGE_LOOP ( 'NONE', ( #28, #186, #381 ) ) ;
#97 = DIRECTION ( 'NONE',  ( -6.546149998043697300E-017, 1.000000000000000000, -0.0000000000000000000 ) ) ;
#98 = CARTESIAN_POINT ( 'NONE',  ( -8.865945824540913900E-016, 15.19999999999999900, 0.0000000000000000000 ) ) ;
#99 = VERTEX_POINT ( 'NONE', #379 ) ;
#100 = AXIS2_PLACEMENT_3D ( 'NONE', #98, #249, #213 ) ;
#101 = DIRECTION ( 'NONE',  ( 1.000000000000000000, 0.0000000000000000000, 0.0000000000000000000 ) ) ;
#102 = ORIENTED_EDGE ( 'NONE', *, *, #150, .T. ) ;
#103 = DIRECTION ( 'NONE',  ( -6.546149998043697300E-017, 1.000000000000000000, -0.0000000000000000000 ) ) ;
#104 = FACE_OUTER_BOUND ( 'NONE', #35, .T. ) ;
#105 = ORIENTED_EDGE ( 'NONE', *, *, #107, .F. ) ;
#106 = FILL_AREA_STYLE ('',( #394 ) ) ;
#107 = EDGE_CURVE ( 'NONE', #111, #177, #220, .T. ) ;
#108 = ADVANCED_FACE ( 'NONE', ( #347 ), #133, .F. ) ;
#109 = ORIENTED_EDGE ( 'NONE', *, *, #169, .T. ) ;
#110 = DIRECTION ( 'NONE',  ( -6.546149998043697300E-017, 1.000000000000000000, -0.0000000000000000000 ) ) ;
#111 = VERTEX_POINT ( 'NONE', #273 ) ;
#112 = DIRECTION ( 'NONE',  ( -6.546149998043697300E-017, 1.000000000000000000, -0.0000000000000000000 ) ) ;
#113 = DIRECTION ( 'NONE',  ( -1.000000000000000000, -6.546149998043696100E-017, 0.0000000000000000000 ) ) ;
#114 = FACE_OUTER_BOUND ( 'NONE', #184, .T. ) ;
#115 = LINE ( 'NONE', #8, #73 ) ;
#116 = CARTESIAN_POINT ( 'NONE',  ( -6.771177825166930400E-016, 12.00000000000000000, 0.0000000000000000000 ) ) ;
#117 = FACE_OUTER_BOUND ( 'NONE', #208, .T. ) ;
#118 = ORIENTED_EDGE ( 'NONE', *, *, #242, .F. ) ;
#119 = DIRECTION ( 'NONE',  ( -6.546149998043697300E-017, 1.000000000000000000, -0.0000000000000000000 ) ) ;
#120 = CARTESIAN_POINT ( 'NONE',  ( -4.100000000000001400, -2.683921499197916500E-016, 0.0000000000000000000 ) ) ;
#121 = CARTESIAN_POINT ( 'NONE',  ( -3.650000000000000400, -2.389344749285949800E-016, 0.0000000000000000000 ) ) ;
#122 = ORIENTED_EDGE ( 'NONE', *, *, #229, .T. ) ;
#123 = CIRCLE ( 'NONE', #178, 4.750000000000001800 ) ;
#124 = MECHANICAL_DESIGN_GEOMETRIC_PRESENTATION_REPRESENTATION (  '', ( #353 ), #207 ) ;
#125 = PRODUCT ( '2029514_KSTP1', '2029514_KSTP1', '', ( #53 ) ) ;
#126 = UNCERTAINTY_MEASURE_WITH_UNIT (LENGTH_MEASURE( 1.000000000000000100E-005 ), #222, 'distance_accuracy_value', 'NONE');
#127 = FACE_OUTER_BOUND ( 'NONE', #151, .T. ) ;
#128 = EDGE_LOOP ( 'NONE', ( #263, #278, #192, #43 ) ) ;
#129 = CIRCLE ( 'NONE', #212, 23.28124999999996100 ) ;
#130 = EDGE_LOOP ( 'NONE', ( #118, #66, #227 ) ) ;
#131 = DIRECTION ( 'NONE',  ( -6.546149998043697300E-017, 1.000000000000000000, -0.0000000000000000000 ) ) ;
#132 = CARTESIAN_POINT ( 'NONE',  ( -6.750000000000002700, 12.00000000000000000, 0.0000000000000000000 ) ) ;
#133 = CYLINDRICAL_SURFACE ( 'NONE', #317, 3.650000000000000800 ) ;
#134 = PRODUCT_RELATED_PRODUCT_CATEGORY ( 'part', '', ( #125 ) ) ;
#135 = CARTESIAN_POINT ( 'NONE',  ( 2.728666149350191300E-015, -7.281249999999962700, 0.0000000000000000000 ) ) ;
#136 = VECTOR ( 'NONE', #103, 1000.000000000000000 ) ;
#137 = CARTESIAN_POINT ( 'NONE',  ( 2.633589345581564400E-015, 15.19999999999999900, 0.0000000000000000000 ) ) ;
#138 = EDGE_CURVE ( 'NONE', #357, #299, #163, .T. ) ;
#139 = DIRECTION ( 'NONE',  ( 0.0000000000000000000, 0.0000000000000000000, 1.000000000000000000 ) ) ;
#140 = ORIENTED_EDGE ( 'NONE', *, *, #348, .T. ) ;
#141 = LINE ( 'NONE', #142, #401 ) ;
#142 = CARTESIAN_POINT ( 'NONE',  ( -4.750000000000001800, 15.19999999999999900, 0.0000000000000000000 ) ) ;
#143 = CYLINDRICAL_SURFACE ( 'NONE', #362, 3.650000000000000800 ) ;
#144 = ADVANCED_FACE ( 'NONE', ( #155 ), #6, .T. ) ;
#145 = DIRECTION ( 'NONE',  ( -1.000000000000000000, 0.0000000000000000000, 0.0000000000000000000 ) ) ;
#146 = ORIENTED_EDGE ( 'NONE', *, *, #62, .T. ) ;
#147 = ORIENTED_EDGE ( 'NONE', *, *, #345, .F. ) ;
#148 = EDGE_CURVE ( 'NONE', #357, #197, #65, .T. ) ;
#149 = CARTESIAN_POINT ( 'NONE',  ( -6.771177825166930400E-016, 12.00000000000000000, 0.0000000000000000000 ) ) ;
#150 = EDGE_CURVE ( 'NONE', #158, #22, #115, .T. ) ;
#151 = EDGE_LOOP ( 'NONE', ( #360, #243 ) ) ;
#152 = VERTEX_POINT ( 'NONE', #121 ) ;
#153 = AXIS2_PLACEMENT_3D ( 'NONE', #358, #363, #194 ) ;
#154 = ORIENTED_EDGE ( 'NONE', *, *, #138, .T. ) ;
#155 = FACE_OUTER_BOUND ( 'NONE', #64, .T. ) ;
#156 = DIRECTION ( 'NONE',  ( -1.000000000000000000, 0.0000000000000000000, -1.224646799147353200E-016 ) ) ;
#157 = CARTESIAN_POINT ( 'NONE',  ( 2.728666149350191300E-015, -7.281249999999962700, 0.0000000000000000000 ) ) ;
#158 = VERTEX_POINT ( 'NONE', #90 ) ;
#159 = DIRECTION ( 'NONE',  ( -6.546149998043697300E-017, 1.000000000000000000, -0.0000000000000000000 ) ) ;
#160 = ORIENTED_EDGE ( 'NONE', *, *, #308, .T. ) ;
#161 = DIRECTION ( 'NONE',  ( 1.000000000000000000, 7.716312375765626300E-017, 0.0000000000000000000 ) ) ;
#162 = DIRECTION ( 'NONE',  ( 0.0000000000000000000, 0.0000000000000000000, -1.000000000000000000 ) ) ;
#163 = CIRCLE ( 'NONE', #241, 4.100000000000001400 ) ;
#164 = SURFACE_SIDE_STYLE ('',( #38 ) ) ;
#165 = AXIS2_PLACEMENT_3D ( 'NONE', #116, #334, #84 ) ;
#166 = DIRECTION ( 'NONE',  ( 1.000000000000000000, 7.451161239095023000E-017, 0.0000000000000000000 ) ) ;
#167 = ADVANCED_FACE ( 'NONE', ( #203 ), #385, .T. ) ;
#168 = ORIENTED_EDGE ( 'NONE', *, *, #235, .T. ) ;
#169 = EDGE_CURVE ( 'NONE', #152, #219, #383, .T. ) ;
#170 = UNCERTAINTY_MEASURE_WITH_UNIT (LENGTH_MEASURE( 1.000000000000000100E-005 ), #361, 'distance_accuracy_value', 'NONE');
#171 = DIRECTION ( 'NONE',  ( -6.546149998043697300E-017, 1.000000000000000000, -0.0000000000000000000 ) ) ;
#172 = AXIS2_PLACEMENT_3D ( 'NONE', #265, #302, #113 ) ;
#173 = FACE_OUTER_BOUND ( 'NONE', #96, .T. ) ;
#174 = EDGE_LOOP ( 'NONE', ( #297, #102, #369, #398 ) ) ;
#175 = DIRECTION ( 'NONE',  ( -1.000000000000000000, 0.0000000000000000000, 0.0000000000000000000 ) ) ;
#176 = DIRECTION ( 'NONE',  ( -0.3090860723375579700, 0.9510340687309482000, 0.0000000000000000000 ) ) ;
#177 = VERTEX_POINT ( 'NONE', #375 ) ;
#178 = AXIS2_PLACEMENT_3D ( 'NONE', #149, #119, #175 ) ;
#179 = ADVANCED_BREP_SHAPE_REPRESENTATION ( '2029514_KSTP1', ( #343, #92 ), #252 ) ;
#180 = FACE_OUTER_BOUND ( 'NONE', #93, .T. ) ;
#181 = EDGE_LOOP ( 'NONE', ( #147, #71, #160, #32 ) ) ;
#182 = STYLED_ITEM ( 'NONE', ( #94 ), #179 ) ;
#183 = DIRECTION ( 'NONE',  ( -6.546149998043697300E-017, 1.000000000000000000, -0.0000000000000000000 ) ) ;
#184 = EDGE_LOOP ( 'NONE', ( #154, #140, #68, #46 ) ) ;
#185 = CIRCLE ( 'NONE', #339, 4.100000000000001400 ) ;
#186 = ORIENTED_EDGE ( 'NONE', *, *, #49, .T. ) ;
#187 = DIRECTION ( 'NONE',  ( 1.224646799147353200E-016, 8.016721641842666900E-033, -1.000000000000000000 ) ) ;
#188 = CARTESIAN_POINT ( 'NONE',  ( -8.865945824540913900E-016, 15.19999999999999900, 0.0000000000000000000 ) ) ;
#189 = AXIS2_PLACEMENT_3D ( 'NONE', #367, #110, #301 ) ;
#190 = DIRECTION ( 'NONE',  ( 0.0000000000000000000, 0.0000000000000000000, 1.000000000000000000 ) ) ;
#191 = CIRCLE ( 'NONE', #189, 3.650000000000001200 ) ;
#192 = ORIENTED_EDGE ( 'NONE', *, *, #67, .T. ) ;
#193 = CARTESIAN_POINT ( 'NONE',  ( 2.728666149350191300E-015, -7.281249999999962700, 0.0000000000000000000 ) ) ;
#194 = DIRECTION ( 'NONE',  ( -1.000000000000000000, -6.546149998043697300E-017, 0.0000000000000000000 ) ) ;
#195 = VERTEX_POINT ( 'NONE', #132 ) ;
#196 = LINE ( 'NONE', #372, #396 ) ;
#197 = VERTEX_POINT ( 'NONE', #351 ) ;
#198 = ADVANCED_FACE ( 'NONE', ( #104 ), #45, .T. ) ;
#199 = DIRECTION ( 'NONE',  ( 1.000000000000000000, 0.0000000000000000000, 0.0000000000000000000 ) ) ;
#200 = AXIS2_PLACEMENT_3D ( 'NONE', #238, #89, #145 ) ;
#201 = CARTESIAN_POINT ( 'NONE',  ( 4.750000000000000900, 12.00000000000000000, 5.817072295949928400E-016 ) ) ;
#202 = EDGE_CURVE ( 'NONE', #299, #357, #185, .T. ) ;
#203 = FACE_OUTER_BOUND ( 'NONE', #60, .T. ) ;
#204 = DIRECTION ( 'NONE',  ( -6.546149998043697300E-017, 1.000000000000000000, -0.0000000000000000000 ) ) ;
#205 = CARTESIAN_POINT ( 'NONE',  ( 2.728666149350191300E-015, -7.281249999999962700, 0.0000000000000000000 ) ) ;
#206 = ADVANCED_FACE ( 'NONE', ( #315 ), #143, .F. ) ;
#207 =( GEOMETRIC_REPRESENTATION_CONTEXT ( 3 ) GLOBAL_UNCERTAINTY_ASSIGNED_CONTEXT ( ( #170 ) ) GLOBAL_UNIT_ASSIGNED_CONTEXT ( ( #361, #52, #225 ) ) REPRESENTATION_CONTEXT ( 'NONE', 'WORKASPACE' ) );
#208 = EDGE_LOOP ( 'NONE', ( #350, #253 ) ) ;
#209 = LINE ( 'NONE', #24, #136 ) ;
#210 = DIRECTION ( 'NONE',  ( -6.546149998043697300E-017, 1.000000000000000000, -0.0000000000000000000 ) ) ;
#211 = CYLINDRICAL_SURFACE ( 'NONE', #100, 6.750000000000001800 ) ;
#212 = AXIS2_PLACEMENT_3D ( 'NONE', #231, #370, #199 ) ;
#213 = DIRECTION ( 'NONE',  ( -1.000000000000000000, 0.0000000000000000000, 0.0000000000000000000 ) ) ;
#214 = ORIENTED_EDGE ( 'NONE', *, *, #1, .F. ) ;
#215 = DIRECTION ( 'NONE',  ( -6.546149998043697300E-017, 1.000000000000000000, -0.0000000000000000000 ) ) ;
#216 = VECTOR ( 'NONE', #7, 1000.000000000000000 ) ;
#217 = CARTESIAN_POINT ( 'NONE',  ( 1.084202172485506400E-016, 0.0000000000000000000, 0.0000000000000000000 ) ) ;
#218 = AXIS2_PLACEMENT_3D ( 'NONE', #269, #264, #85 ) ;
#219 = VERTEX_POINT ( 'NONE', #15 ) ;
#220 = CIRCLE ( 'NONE', #200, 3.650000000000001200 ) ;
#221 = CARTESIAN_POINT ( 'NONE',  ( -2.250278271232337700E-017, 2.000000000000000000, 0.0000000000000000000 ) ) ;
#222 =( LENGTH_UNIT ( ) NAMED_UNIT ( * ) SI_UNIT ( .MILLI., .METRE. ) );
#223 =( NAMED_UNIT ( * ) PLANE_ANGLE_UNIT ( ) SI_UNIT ( $, .RADIAN. ) );
#224 = AXIS2_PLACEMENT_3D ( 'NONE', #25, #3, #328 ) ;
#225 =( NAMED_UNIT ( * ) SI_UNIT ( $, .STERADIAN. ) SOLID_ANGLE_UNIT ( ) );
#226 = ORIENTED_EDGE ( 'NONE', *, *, #150, .F. ) ;
#227 = ORIENTED_EDGE ( 'NONE', *, *, #368, .T. ) ;
#228 = DIRECTION ( 'NONE',  ( -1.000000000000000000, -9.130123557772667100E-017, 0.0000000000000000000 ) ) ;
#229 = EDGE_CURVE ( 'NONE', #219, #152, #276, .T. ) ;
#230 = ADVANCED_FACE ( 'NONE', ( #173 ), #270, .T. ) ;
#231 = CARTESIAN_POINT ( 'NONE',  ( 2.728666149350191300E-015, -7.281249999999962700, 0.0000000000000000000 ) ) ;
#232 = ORIENTED_EDGE ( 'NONE', *, *, #308, .F. ) ;
#233 = AXIS2_PLACEMENT_3D ( 'NONE', #12, #159, #386 ) ;
#234 = DIRECTION ( 'NONE',  ( -1.000000000000000000, -6.546149998043696100E-017, 0.0000000000000000000 ) ) ;
#235 = EDGE_CURVE ( 'NONE', #258, #22, #56, .T. ) ;
#236 = ORIENTED_EDGE ( 'NONE', *, *, #291, .T. ) ;
#237 = CARTESIAN_POINT ( 'NONE',  ( 3.649999999999999900, 15.19999999999999900, 4.469960816887840400E-016 ) ) ;
#238 = CARTESIAN_POINT ( 'NONE',  ( -8.670686429361206200E-016, 14.90171872743817300, 0.0000000000000000000 ) ) ;
#239 = DIRECTION ( 'NONE',  ( -1.000000000000000000, 0.0000000000000000000, 0.0000000000000000000 ) ) ;
#240 = ORIENTED_EDGE ( 'NONE', *, *, #242, .T. ) ;
#241 = AXIS2_PLACEMENT_3D ( 'NONE', #313, #34, #5 ) ;
#242 = EDGE_CURVE ( 'NONE', #111, #356, #335, .T. ) ;
#243 = ORIENTED_EDGE ( 'NONE', *, *, #202, .F. ) ;
#244 = DIRECTION ( 'NONE',  ( -1.000000000000000000, 0.0000000000000000000, 0.0000000000000000000 ) ) ;
#245 = AXIS2_PLACEMENT_3D ( 'NONE', #333, #112, #331 ) ;
#246 = CARTESIAN_POINT ( 'NONE',  ( 4.100000000000001400, 2.683921499197916500E-016, 5.419062086227038400E-016 ) ) ;
#247 = AXIS2_PLACEMENT_3D ( 'NONE', #389, #183, #69 ) ;
#248 = UNCERTAINTY_MEASURE_WITH_UNIT (LENGTH_MEASURE( 1.000000000000000100E-005 ), #397, 'distance_accuracy_value', 'NONE');
#249 = DIRECTION ( 'NONE',  ( -6.546149998043697300E-017, 1.000000000000000000, -0.0000000000000000000 ) ) ;
#250 = VERTEX_POINT ( 'NONE', #388 ) ;
#251 = EDGE_LOOP ( 'NONE', ( #105, #240, #310 ) ) ;
#252 =( GEOMETRIC_REPRESENTATION_CONTEXT ( 3 ) GLOBAL_UNCERTAINTY_ASSIGNED_CONTEXT ( ( #126 ) ) GLOBAL_UNIT_ASSIGNED_CONTEXT ( ( #222, #223, #55 ) ) REPRESENTATION_CONTEXT ( 'NONE', 'WORKASPACE' ) );
#253 = ORIENTED_EDGE ( 'NONE', *, *, #259, .F. ) ;
#254 = PRESENTATION_STYLE_ASSIGNMENT (( #292 ) ) ;
#255 = CIRCLE ( 'NONE', #245, 6.750000000000001800 ) ;
#256 = SURFACE_STYLE_USAGE ( .BOTH. , #76 ) ;
#257 = FACE_BOUND ( 'NONE', #19, .T. ) ;
#258 = VERTEX_POINT ( 'NONE', #354 ) ;
#259 = EDGE_CURVE ( 'NONE', #158, #195, #305, .T. ) ;
#260 = CARTESIAN_POINT ( 'NONE',  ( -4.750000000000002700, 12.00000000000000000, 0.0000000000000000000 ) ) ;
#261 = FILL_AREA_STYLE ('',( #78 ) ) ;
#262 = CARTESIAN_POINT ( 'NONE',  ( 2.728666149350191300E-015, -7.281249999999962700, 0.0000000000000000000 ) ) ;
#263 = ORIENTED_EDGE ( 'NONE', *, *, #229, .F. ) ;
#264 = DIRECTION ( 'NONE',  ( -6.546149998043697300E-017, 1.000000000000000000, 0.0000000000000000000 ) ) ;
#265 = CARTESIAN_POINT ( 'NONE',  ( 1.084202172485506400E-016, 0.0000000000000000000, 0.0000000000000000000 ) ) ;
#266 = AXIS2_PLACEMENT_3D ( 'NONE', #277, #272, #309 ) ;
#267 = DIRECTION ( 'NONE',  ( 1.000000000000000000, 7.716312375765626300E-017, 0.0000000000000000000 ) ) ;
#268 = EDGE_CURVE ( 'NONE', #250, #197, #371, .T. ) ;
#269 = CARTESIAN_POINT ( 'NONE',  ( 3.650000000000000400, 1.077358424191369000E-016, 0.0000000000000000000 ) ) ;
#270 = SPHERICAL_SURFACE ( 'NONE', #9, 23.28124999999996100 ) ;
#271 = DIRECTION ( 'NONE',  ( -6.546149998043697300E-017, 1.000000000000000000, -0.0000000000000000000 ) ) ;
#272 = DIRECTION ( 'NONE',  ( -6.546149998043697300E-017, 1.000000000000000000, -0.0000000000000000000 ) ) ;
#273 = CARTESIAN_POINT ( 'NONE',  ( -3.650000000000002100, 14.90171872743817300, 0.0000000000000000000 ) ) ;
#274 = ORIENTED_EDGE ( 'NONE', *, *, #202, .T. ) ;
#275 = AXIS2_PLACEMENT_3D ( 'NONE', #157, #187, #156 ) ;
#276 = CIRCLE ( 'NONE', #59, 3.650000000000000400 ) ;
#277 = CARTESIAN_POINT ( 'NONE',  ( -8.865945824540913900E-016, 15.19999999999999900, 0.0000000000000000000 ) ) ;
#278 = ORIENTED_EDGE ( 'NONE', *, *, #88, .T. ) ;
#279 = CIRCLE ( 'NONE', #165, 4.750000000000001800 ) ;
#280 = EDGE_CURVE ( 'NONE', #22, #258, #77, .T. ) ;
#281 = ORIENTED_EDGE ( 'NONE', *, *, #345, .T. ) ;
#282 = DIRECTION ( 'NONE',  ( -6.546149998043697300E-017, 1.000000000000000000, -0.0000000000000000000 ) ) ;
#283 = ORIENTED_EDGE ( 'NONE', *, *, #169, .F. ) ;
#284 = FACE_OUTER_BOUND ( 'NONE', #130, .T. ) ;
#285 = ORIENTED_EDGE ( 'NONE', *, *, #259, .T. ) ;
#286 = DIRECTION ( 'NONE',  ( -1.000000000000000000, -6.546149998043696100E-017, 0.0000000000000000000 ) ) ;
#287 = DIRECTION ( 'NONE',  ( 0.0000000000000000000, 0.0000000000000000000, -1.000000000000000000 ) ) ;
#288 = AXIS2_PLACEMENT_3D ( 'NONE', #377, #210, #234 ) ;
#289 = CARTESIAN_POINT ( 'NONE',  ( -6.750000000000002700, 15.19999999999999900, 0.0000000000000000000 ) ) ;
#290 = FACE_OUTER_BOUND ( 'NONE', #174, .T. ) ;
#291 = EDGE_CURVE ( 'NONE', #195, #258, #298, .T. ) ;
#292 = SURFACE_STYLE_USAGE ( .BOTH. , #164 ) ;
#293 =( NAMED_UNIT ( * ) SI_UNIT ( $, .STERADIAN. ) SOLID_ANGLE_UNIT ( ) );
#294 = EDGE_LOOP ( 'NONE', ( #342, #283, #146, #365 ) ) ;
#295 = AXIS2_PLACEMENT_3D ( 'NONE', #63, #271, #239 ) ;
#296 = PLANE ( 'NONE',  #153 ) ;
#297 = ORIENTED_EDGE ( 'NONE', *, *, #10, .T. ) ;
#298 = LINE ( 'NONE', #289, #11 ) ;
#299 = VERTEX_POINT ( 'NONE', #246 ) ;
#300 = AXIS2_PLACEMENT_3D ( 'NONE', #193, #139, #101 ) ;
#301 = DIRECTION ( 'NONE',  ( -1.000000000000000000, 0.0000000000000000000, 0.0000000000000000000 ) ) ;
#302 = DIRECTION ( 'NONE',  ( -6.546149998043697300E-017, 1.000000000000000000, -0.0000000000000000000 ) ) ;
#303 = ADVANCED_FACE ( 'NONE', ( #290 ), #211, .T. ) ;
#304 = ORIENTED_EDGE ( 'NONE', *, *, #83, .T. ) ;
#305 = CIRCLE ( 'NONE', #247, 6.750000000000001800 ) ;
#306 = CARTESIAN_POINT ( 'NONE',  ( -8.865945824540913900E-016, 15.19999999999999900, 0.0000000000000000000 ) ) ;
#307 = PRODUCT_DEFINITION_SHAPE ( 'NONE', 'NONE',  #47 ) ;
#308 = EDGE_CURVE ( 'NONE', #197, #329, #141, .T. ) ;
#309 = DIRECTION ( 'NONE',  ( -1.000000000000000000, 0.0000000000000000000, 0.0000000000000000000 ) ) ;
#310 = ORIENTED_EDGE ( 'NONE', *, *, #368, .F. ) ;
#311 = LINE ( 'NONE', #237, #216 ) ;
#312 = ORIENTED_EDGE ( 'NONE', *, *, #376, .T. ) ;
#313 = CARTESIAN_POINT ( 'NONE',  ( 1.084202172485506400E-016, 0.0000000000000000000, 0.0000000000000000000 ) ) ;
#314 = AXIS2_PLACEMENT_3D ( 'NONE', #205, #58, #267 ) ;
#315 = FACE_OUTER_BOUND ( 'NONE', #294, .T. ) ;
#316 = DIRECTION ( 'NONE',  ( -6.546149998043697300E-017, 1.000000000000000000, -0.0000000000000000000 ) ) ;
#317 = AXIS2_PLACEMENT_3D ( 'NONE', #399, #171, #336 ) ;
#318 = DIRECTION ( 'NONE',  ( -1.000000000000000000, -6.546149998043697300E-017, 0.0000000000000000000 ) ) ;
#319 = DIRECTION ( 'NONE',  ( -1.000000000000000000, 0.0000000000000000000, 0.0000000000000000000 ) ) ;
#320 = EDGE_LOOP ( 'NONE', ( #109, #122 ) ) ;
#321 = DIRECTION ( 'NONE',  ( -6.546149998043697300E-017, 1.000000000000000000, -0.0000000000000000000 ) ) ;
#322 = PRESENTATION_LAYER_ASSIGNMENT (  '', '', ( #353 ) ) ;
#323 = CARTESIAN_POINT ( 'NONE',  ( 4.100000000000001400, 2.683921499197916500E-016, 5.021051876504149400E-016 ) ) ;
#324 = SPHERICAL_SURFACE ( 'NONE', #314, 22.48124999999996400 ) ;
#325 = DIRECTION ( 'NONE',  ( 0.3090860723375578600, 0.9510340687309482000, 3.785212691492175500E-017 ) ) ;
#326 = APPLICATION_PROTOCOL_DEFINITION ( 'draft international standard', 'automotive_design', 1998, #54 ) ;
#327 = DIRECTION ( 'NONE',  ( 0.0000000000000000000, 0.0000000000000000000, -1.000000000000000000 ) ) ;
#328 = DIRECTION ( 'NONE',  ( -1.000000000000000000, 0.0000000000000000000, -1.224646799147353200E-016 ) ) ;
#329 = VERTEX_POINT ( 'NONE', #260 ) ;
#330 = SPHERICAL_SURFACE ( 'NONE', #26, 22.48124999999996400 ) ;
#331 = DIRECTION ( 'NONE',  ( -1.000000000000000000, 0.0000000000000000000, 0.0000000000000000000 ) ) ;
#332 = AXIS2_PLACEMENT_3D ( 'NONE', #72, #316, #17 ) ;
#333 = CARTESIAN_POINT ( 'NONE',  ( -6.771177825166930400E-016, 12.00000000000000000, 0.0000000000000000000 ) ) ;
#334 = DIRECTION ( 'NONE',  ( -6.546149998043697300E-017, 1.000000000000000000, -0.0000000000000000000 ) ) ;
#335 = CIRCLE ( 'NONE', #275, 22.48124999999996400 ) ;
#336 = DIRECTION ( 'NONE',  ( -1.000000000000000000, 0.0000000000000000000, 0.0000000000000000000 ) ) ;
#337 = DIRECTION ( 'NONE',  ( -6.546149998043697300E-017, 1.000000000000000000, -0.0000000000000000000 ) ) ;
#338 = AXIS2_PLACEMENT_3D ( 'NONE', #306, #41, #244 ) ;
#339 = AXIS2_PLACEMENT_3D ( 'NONE', #391, #321, #286 ) ;
#340 = CLOSED_SHELL ( 'NONE', ( #144, #303, #230, #400, #108, #2, #167, #79, #206, #57, #82, #198, #374, #86 ) ) ;
#341 = COLOUR_RGB ( '',0.7529411764705882200, 0.7529411764705882200, 0.7529411764705882200 ) ;
#342 = ORIENTED_EDGE ( 'NONE', *, *, #88, .F. ) ;
#343 = MANIFOLD_SOLID_BREP ( 'Rotation1', #340 ) ;
#344 = SHAPE_DEFINITION_REPRESENTATION ( #307, #179 ) ;
#345 = EDGE_CURVE ( 'NONE', #250, #14, #209, .T. ) ;
#346 = PRODUCT_DEFINITION_CONTEXT ( 'detailed design', #50, 'design' ) ;
#347 = FACE_OUTER_BOUND ( 'NONE', #128, .T. ) ;
#348 = EDGE_CURVE ( 'NONE', #299, #250, #359, .T. ) ;
#349 = CARTESIAN_POINT ( 'NONE',  ( 2.728666149350191300E-015, -7.281249999999962700, 0.0000000000000000000 ) ) ;
#350 = ORIENTED_EDGE ( 'NONE', *, *, #10, .F. ) ;
#351 = CARTESIAN_POINT ( 'NONE',  ( -4.750000000000000900, 1.999999999999999600, 0.0000000000000000000 ) ) ;
#352 = DIRECTION ( 'NONE',  ( -1.000000000000000000, 0.0000000000000000000, 0.0000000000000000000 ) ) ;
#353 = STYLED_ITEM ( 'NONE', ( #254 ), #343 ) ;
#354 = CARTESIAN_POINT ( 'NONE',  ( -6.750000000000001800, 14.99999999999999800, -8.266365894244637300E-016 ) ) ;
#355 = APPLICATION_PROTOCOL_DEFINITION ( 'draft international standard', 'automotive_design', 1998, #50 ) ;
#356 = VERTEX_POINT ( 'NONE', #137 ) ;
#357 = VERTEX_POINT ( 'NONE', #18 ) ;
#358 = CARTESIAN_POINT ( 'NONE',  ( 4.750000000000000900, 12.00000000000000000, 0.0000000000000000000 ) ) ;
#359 = LINE ( 'NONE', #323, #33 ) ;
#360 = ORIENTED_EDGE ( 'NONE', *, *, #138, .F. ) ;
#361 =( LENGTH_UNIT ( ) NAMED_UNIT ( * ) SI_UNIT ( .MILLI., .METRE. ) );
#362 = AXIS2_PLACEMENT_3D ( 'NONE', #188, #131, #352 ) ;
#363 = DIRECTION ( 'NONE',  ( -6.546149998043697300E-017, 1.000000000000000000, 0.0000000000000000000 ) ) ;
#364 = VECTOR ( 'NONE', #176, 1000.000000000000000 ) ;
#365 = ORIENTED_EDGE ( 'NONE', *, *, #107, .T. ) ;
#366 = AXIS2_PLACEMENT_3D ( 'NONE', #221, #21, #228 ) ;
#367 = CARTESIAN_POINT ( 'NONE',  ( -8.670686429361206200E-016, 14.90171872743817300, 0.0000000000000000000 ) ) ;
#368 = EDGE_CURVE ( 'NONE', #177, #356, #61, .T. ) ;
#369 = ORIENTED_EDGE ( 'NONE', *, *, #235, .F. ) ;
#370 = DIRECTION ( 'NONE',  ( 0.0000000000000000000, 0.0000000000000000000, 1.000000000000000000 ) ) ;
#371 = CIRCLE ( 'NONE', #332, 4.750000000000000900 ) ;
#372 = CARTESIAN_POINT ( 'NONE',  ( -3.650000000000001700, 15.19999999999999900, 0.0000000000000000000 ) ) ;
#373 = PRODUCT_DEFINITION_FORMATION_WITH_SPECIFIED_SOURCE ( 'ANY', '', #125, .NOT_KNOWN. ) ;
#374 = ADVANCED_FACE ( 'NONE', ( #117, #257 ), #296, .F. ) ;
#375 = CARTESIAN_POINT ( 'NONE',  ( 3.650000000000000400, 14.90171872743817300, 4.469960816887840400E-016 ) ) ;
#376 = EDGE_CURVE ( 'NONE', #197, #250, #40, .T. ) ;
#377 = CARTESIAN_POINT ( 'NONE',  ( 1.084202172485506400E-016, 0.0000000000000000000, 0.0000000000000000000 ) ) ;
#378 = SPHERICAL_SURFACE ( 'NONE', #393, 23.28124999999996100 ) ;
#379 = CARTESIAN_POINT ( 'NONE',  ( 2.630206017563109400E-015, 16.00000000000000000, 0.0000000000000000000 ) ) ;
#380 = ORIENTED_EDGE ( 'NONE', *, *, #268, .F. ) ;
#381 = ORIENTED_EDGE ( 'NONE', *, *, #30, .F. ) ;
#382 = AXIS2_PLACEMENT_3D ( 'NONE', #384, #215, #319 ) ;
#383 = CIRCLE ( 'NONE', #37, 3.650000000000000400 ) ;
#384 = CARTESIAN_POINT ( 'NONE',  ( -8.735022824580038800E-016, 14.99999999999999800, 0.0000000000000000000 ) ) ;
#385 = CONICAL_SURFACE ( 'NONE', #288, 4.100000000000001400, 0.3142318990843380700 ) ;
#386 = DIRECTION ( 'NONE',  ( -1.000000000000000000, 0.0000000000000000000, 0.0000000000000000000 ) ) ;
#387 = MECHANICAL_DESIGN_GEOMETRIC_PRESENTATION_REPRESENTATION (  '', ( #182 ), #402 ) ;
#388 = CARTESIAN_POINT ( 'NONE',  ( 4.750000000000000900, 2.000000000000000400, 5.817072295949928400E-016 ) ) ;
#389 = CARTESIAN_POINT ( 'NONE',  ( -6.771177825166930400E-016, 12.00000000000000000, 0.0000000000000000000 ) ) ;
#390 = ORIENTED_EDGE ( 'NONE', *, *, #49, .F. ) ;
#391 = CARTESIAN_POINT ( 'NONE',  ( 1.084202172485506400E-016, 0.0000000000000000000, 0.0000000000000000000 ) ) ;
#392 = FACE_OUTER_BOUND ( 'NONE', #181, .T. ) ;
#393 = AXIS2_PLACEMENT_3D ( 'NONE', #262, #327, #166 ) ;
#394 = FILL_AREA_STYLE_COLOUR ( '', #27 ) ;
#395 = CARTESIAN_POINT ( 'NONE',  ( 0.0000000000000000000, 0.0000000000000000000, 0.0000000000000000000 ) ) ;
#396 = VECTOR ( 'NONE', #204, 1000.000000000000000 ) ;
#397 =( LENGTH_UNIT ( ) NAMED_UNIT ( * ) SI_UNIT ( .MILLI., .METRE. ) );
#398 = ORIENTED_EDGE ( 'NONE', *, *, #291, .F. ) ;
#399 = CARTESIAN_POINT ( 'NONE',  ( -8.865945824540913900E-016, 15.19999999999999900, 0.0000000000000000000 ) ) ;
#400 = ADVANCED_FACE ( 'NONE', ( #36 ), #330, .F. ) ;
#401 = VECTOR ( 'NONE', #75, 1000.000000000000000 ) ;
#402 =( GEOMETRIC_REPRESENTATION_CONTEXT ( 3 ) GLOBAL_UNCERTAINTY_ASSIGNED_CONTEXT ( ( #248 ) ) GLOBAL_UNIT_ASSIGNED_CONTEXT ( ( #397, #80, #293 ) ) REPRESENTATION_CONTEXT ( 'NONE', 'WORKASPACE' ) );
ENDSEC;
END-ISO-10303-21;
