ISO-10303-21;
HEADER;
FILE_DESCRIPTION(('CoCreate Modeling STEP Export'),'2;1');
FILE_NAME('1436015.stp','2017-12-13T11:07:21',(''),(''),
'CoCreate Modeling STEP processor for AP214 (Solid Model)',
'CoCreate Modeling 16.00D  29-May-2009 (C) Parametric Technology GmbH',
'');
FILE_SCHEMA(('AUTOMOTIVE_DESIGN { 1 0 10303 214 1 1 1 1 }'));
ENDSEC;
DATA;
#10=CARTESIAN_POINT('',(0.,-4.,0.));
#20=DIRECTION('',(0.,0.,1.));
#30=DIRECTION('',(1.,0.,0.));
#40=AXIS2_PLACEMENT_3D('',#10,#20,#30);
#50=CYLINDRICAL_SURFACE('',#40,7.5);
#60=CARTESIAN_POINT('',(0.,-4.,-3.));
#70=DIRECTION('',(0.,0.,1.));
#80=DIRECTION('',(1.,0.,0.));
#90=AXIS2_PLACEMENT_3D('',#60,#70,#80);
#100=CIRCLE('',#90,7.5);
#110=CARTESIAN_POINT('',(5.44638283060418,1.15625,-3.));
#120=VERTEX_POINT('',#110);
#130=CARTESIAN_POINT('',(-5.44638283060418,1.15625,-3.));
#140=VERTEX_POINT('',#130);
#150=EDGE_CURVE('',#120,#140,#100,.T.);
#160=ORIENTED_EDGE('',*,*,#150,.T.);
#170=CARTESIAN_POINT('',(5.44638283060418,1.15625,0.));
#180=DIRECTION('',(0.,0.,-1.));
#190=VECTOR('',#180,1.);
#200=LINE('',#170,#190);
#210=CARTESIAN_POINT('',(5.44638283060418,1.15625,3.));
#220=VERTEX_POINT('',#210);
#230=EDGE_CURVE('',#220,#120,#200,.T.);
#240=ORIENTED_EDGE('',*,*,#230,.T.);
#250=CARTESIAN_POINT('',(0.,-4.,3.));
#260=DIRECTION('',(0.,0.,1.));
#270=DIRECTION('',(1.,0.,0.));
#280=AXIS2_PLACEMENT_3D('',#250,#260,#270);
#290=CIRCLE('',#280,7.5);
#300=CARTESIAN_POINT('',(-5.44638283060418,1.15625,3.));
#310=VERTEX_POINT('',#300);
#320=EDGE_CURVE('',#220,#310,#290,.T.);
#330=ORIENTED_EDGE('',*,*,#320,.F.);
#340=CARTESIAN_POINT('',(-5.44638283060418,1.15625,0.));
#350=DIRECTION('',(0.,0.,1.));
#360=VECTOR('',#350,1.);
#370=LINE('',#340,#360);
#380=EDGE_CURVE('',#140,#310,#370,.T.);
#390=ORIENTED_EDGE('',*,*,#380,.T.);
#400=EDGE_LOOP('',(#390,#330,#240,#160));
#410=FACE_OUTER_BOUND('',#400,.T.);
#420=ADVANCED_FACE('',(#410),#50,.T.);
#430=CARTESIAN_POINT('',(-12.5,1.,0.));
#440=DIRECTION('',(-0.,1.,0.));
#450=DIRECTION('',(1.,0.,0.));
#460=AXIS2_PLACEMENT_3D('',#430,#440,#450);
#470=PLANE('',#460);
#480=CARTESIAN_POINT('',(-9.,1.,0.));
#490=DIRECTION('',(0.,1.,0.));
#500=DIRECTION('',(1.,0.,0.));
#510=AXIS2_PLACEMENT_3D('',#480,#490,#500);
#520=CIRCLE('',#510,1.75);
#530=CARTESIAN_POINT('',(-7.25,1.,0.));
#540=VERTEX_POINT('',#530);
#550=CARTESIAN_POINT('',(-10.75,1.,-2.14313189850787E-16));
#560=VERTEX_POINT('',#550);
#570=EDGE_CURVE('',#540,#560,#520,.T.);
#580=ORIENTED_EDGE('',*,*,#570,.F.);
#590=EDGE_CURVE('',#560,#540,#520,.T.);
#600=ORIENTED_EDGE('',*,*,#590,.F.);
#610=EDGE_LOOP('',(#600,#580));
#620=FACE_BOUND('',#610,.T.);
#630=CARTESIAN_POINT('',(0.,1.,-3.));
#640=DIRECTION('',(1.,0.,0.));
#650=VECTOR('',#640,1.);
#660=LINE('',#630,#650);
#670=CARTESIAN_POINT('',(-12.5,1.,-3.));
#680=VERTEX_POINT('',#670);
#690=CARTESIAN_POINT('',(-5.80947501931112,1.,-3.));
#700=VERTEX_POINT('',#690);
#710=EDGE_CURVE('',#680,#700,#660,.T.);
#720=ORIENTED_EDGE('',*,*,#710,.F.);
#730=CARTESIAN_POINT('',(-5.80947501931112,1.,0.));
#740=DIRECTION('',(0.,0.,1.));
#750=VECTOR('',#740,1.);
#760=LINE('',#730,#750);
#770=CARTESIAN_POINT('',(-5.80947501931112,1.,3.));
#780=VERTEX_POINT('',#770);
#790=EDGE_CURVE('',#700,#780,#760,.T.);
#800=ORIENTED_EDGE('',*,*,#790,.F.);
#810=CARTESIAN_POINT('',(0.,1.,3.));
#820=DIRECTION('',(1.,0.,0.));
#830=VECTOR('',#820,1.);
#840=LINE('',#810,#830);
#850=CARTESIAN_POINT('',(-12.5,1.,3.));
#860=VERTEX_POINT('',#850);
#870=EDGE_CURVE('',#860,#780,#840,.T.);
#880=ORIENTED_EDGE('',*,*,#870,.T.);
#890=CARTESIAN_POINT('',(-12.5,1.,0.));
#900=DIRECTION('',(0.,0.,1.));
#910=VECTOR('',#900,1.);
#920=LINE('',#890,#910);
#930=EDGE_CURVE('',#680,#860,#920,.T.);
#940=ORIENTED_EDGE('',*,*,#930,.T.);
#950=EDGE_LOOP('',(#940,#880,#800,#720));
#960=FACE_OUTER_BOUND('',#950,.T.);
#970=ADVANCED_FACE('',(#620,#960),#470,.T.);
#980=CARTESIAN_POINT('',(-12.5,0.,0.));
#990=DIRECTION('',(-1.,0.,0.));
#1000=DIRECTION('',(0.,1.,0.));
#1010=AXIS2_PLACEMENT_3D('',#980,#990,#1000);
#1020=PLANE('',#1010);
#1030=CARTESIAN_POINT('',(-12.5,0.,-3.));
#1040=DIRECTION('',(0.,1.,0.));
#1050=VECTOR('',#1040,1.);
#1060=LINE('',#1030,#1050);
#1070=CARTESIAN_POINT('',(-12.5,0.,-3.));
#1080=VERTEX_POINT('',#1070);
#1090=EDGE_CURVE('',#1080,#680,#1060,.T.);
#1100=ORIENTED_EDGE('',*,*,#1090,.F.);
#1110=ORIENTED_EDGE('',*,*,#930,.F.);
#1120=CARTESIAN_POINT('',(-12.5,0.,3.));
#1130=DIRECTION('',(0.,1.,0.));
#1140=VECTOR('',#1130,1.);
#1150=LINE('',#1120,#1140);
#1160=CARTESIAN_POINT('',(-12.5,0.,3.));
#1170=VERTEX_POINT('',#1160);
#1180=EDGE_CURVE('',#1170,#860,#1150,.T.);
#1190=ORIENTED_EDGE('',*,*,#1180,.T.);
#1200=CARTESIAN_POINT('',(-12.5,0.,0.));
#1210=DIRECTION('',(0.,0.,1.));
#1220=VECTOR('',#1210,1.);
#1230=LINE('',#1200,#1220);
#1240=EDGE_CURVE('',#1080,#1170,#1230,.T.);
#1250=ORIENTED_EDGE('',*,*,#1240,.T.);
#1260=EDGE_LOOP('',(#1250,#1190,#1110,#1100));
#1270=FACE_OUTER_BOUND('',#1260,.T.);
#1280=ADVANCED_FACE('',(#1270),#1020,.T.);
#1290=CARTESIAN_POINT('',(-9.,1.0273275,0.));
#1300=DIRECTION('',(0.,1.,0.));
#1310=DIRECTION('',(1.,0.,0.));
#1320=AXIS2_PLACEMENT_3D('',#1290,#1300,#1310);
#1330=CYLINDRICAL_SURFACE('',#1320,1.75);
#1340=CARTESIAN_POINT('',(-7.25,1.0273275,0.));
#1350=DIRECTION('',(0.,1.,0.));
#1360=VECTOR('',#1350,1.);
#1370=LINE('',#1340,#1360);
#1380=CARTESIAN_POINT('',(-7.25,0.,0.));
#1390=VERTEX_POINT('',#1380);
#1400=EDGE_CURVE('',#1390,#540,#1370,.T.);
#1410=ORIENTED_EDGE('',*,*,#1400,.F.);
#1420=ORIENTED_EDGE('',*,*,#590,.T.);
#1430=CARTESIAN_POINT('',(-10.75,1.0273275,-2.14313189850787E-16));
#1440=DIRECTION('',(0.,1.,0.));
#1450=VECTOR('',#1440,1.);
#1460=LINE('',#1430,#1450);
#1470=CARTESIAN_POINT('',(-10.75,0.,-2.14313189850787E-16));
#1480=VERTEX_POINT('',#1470);
#1490=EDGE_CURVE('',#1480,#560,#1460,.T.);
#1500=ORIENTED_EDGE('',*,*,#1490,.T.);
#1510=CARTESIAN_POINT('',(-9.,0.,0.));
#1520=DIRECTION('',(0.,1.,0.));
#1530=DIRECTION('',(1.,0.,0.));
#1540=AXIS2_PLACEMENT_3D('',#1510,#1520,#1530);
#1550=CIRCLE('',#1540,1.75);
#1560=EDGE_CURVE('',#1480,#1390,#1550,.T.);
#1570=ORIENTED_EDGE('',*,*,#1560,.F.);
#1580=EDGE_LOOP('',(#1570,#1500,#1420,#1410));
#1590=FACE_OUTER_BOUND('',#1580,.T.);
#1600=ADVANCED_FACE('',(#1590),#1330,.F.);
#1610=CARTESIAN_POINT('',(12.5,0.,0.));
#1620=DIRECTION('',(-1.,0.,0.));
#1630=DIRECTION('',(0.,1.,0.));
#1640=AXIS2_PLACEMENT_3D('',#1610,#1620,#1630);
#1650=PLANE('',#1640);
#1660=CARTESIAN_POINT('',(12.5,0.,0.));
#1670=DIRECTION('',(0.,0.,1.));
#1680=VECTOR('',#1670,1.);
#1690=LINE('',#1660,#1680);
#1700=CARTESIAN_POINT('',(12.5,0.,-3.));
#1710=VERTEX_POINT('',#1700);
#1720=CARTESIAN_POINT('',(12.5,0.,3.));
#1730=VERTEX_POINT('',#1720);
#1740=EDGE_CURVE('',#1710,#1730,#1690,.T.);
#1750=ORIENTED_EDGE('',*,*,#1740,.F.);
#1760=CARTESIAN_POINT('',(12.5,0.,3.));
#1770=DIRECTION('',(0.,1.,0.));
#1780=VECTOR('',#1770,1.);
#1790=LINE('',#1760,#1780);
#1800=CARTESIAN_POINT('',(12.5,1.,3.));
#1810=VERTEX_POINT('',#1800);
#1820=EDGE_CURVE('',#1730,#1810,#1790,.T.);
#1830=ORIENTED_EDGE('',*,*,#1820,.F.);
#1840=CARTESIAN_POINT('',(12.5,1.,0.));
#1850=DIRECTION('',(0.,0.,1.));
#1860=VECTOR('',#1850,1.);
#1870=LINE('',#1840,#1860);
#1880=CARTESIAN_POINT('',(12.5,1.,-3.));
#1890=VERTEX_POINT('',#1880);
#1900=EDGE_CURVE('',#1890,#1810,#1870,.T.);
#1910=ORIENTED_EDGE('',*,*,#1900,.T.);
#1920=CARTESIAN_POINT('',(12.5,0.,-3.));
#1930=DIRECTION('',(0.,1.,0.));
#1940=VECTOR('',#1930,1.);
#1950=LINE('',#1920,#1940);
#1960=EDGE_CURVE('',#1710,#1890,#1950,.T.);
#1970=ORIENTED_EDGE('',*,*,#1960,.T.);
#1980=EDGE_LOOP('',(#1970,#1910,#1830,#1750));
#1990=FACE_OUTER_BOUND('',#1980,.T.);
#2000=ADVANCED_FACE('',(#1990),#1650,.F.);
#2010=CARTESIAN_POINT('',(0.,0.,3.));
#2020=DIRECTION('',(0.,0.,1.));
#2030=DIRECTION('',(1.,0.,0.));
#2040=AXIS2_PLACEMENT_3D('',#2010,#2020,#2030);
#2050=PLANE('',#2040);
#2060=CARTESIAN_POINT('',(5.80947501931113,1.5,3.));
#2070=DIRECTION('',(0.,0.,1.));
#2080=DIRECTION('',(1.,0.,0.));
#2090=AXIS2_PLACEMENT_3D('',#2060,#2070,#2080);
#2100=CIRCLE('',#2090,1.5);
#2110=CARTESIAN_POINT('',(4.72019845319029,0.46875,3.));
#2120=VERTEX_POINT('',#2110);
#2130=CARTESIAN_POINT('',(5.80947501931113,0.,3.));
#2140=VERTEX_POINT('',#2130);
#2150=EDGE_CURVE('',#2120,#2140,#2100,.T.);
#2160=ORIENTED_EDGE('',*,*,#2150,.T.);
#2170=CARTESIAN_POINT('',(0.,-4.,3.));
#2180=DIRECTION('',(0.,0.,1.));
#2190=DIRECTION('',(1.,0.,0.));
#2200=AXIS2_PLACEMENT_3D('',#2170,#2180,#2190);
#2210=CIRCLE('',#2200,6.5);
#2220=CARTESIAN_POINT('',(-4.72019845319029,0.46875,3.));
#2230=VERTEX_POINT('',#2220);
#2240=EDGE_CURVE('',#2120,#2230,#2210,.T.);
#2250=ORIENTED_EDGE('',*,*,#2240,.F.);
#2260=CARTESIAN_POINT('',(-5.80947501931112,1.5,3.));
#2270=DIRECTION('',(0.,0.,1.));
#2280=DIRECTION('',(1.,0.,0.));
#2290=AXIS2_PLACEMENT_3D('',#2260,#2270,#2280);
#2300=CIRCLE('',#2290,1.5);
#2310=CARTESIAN_POINT('',(-5.80947501931112,8.88178419700125E-16,3.));
#2320=VERTEX_POINT('',#2310);
#2330=EDGE_CURVE('',#2320,#2230,#2300,.T.);
#2340=ORIENTED_EDGE('',*,*,#2330,.T.);
#2350=CARTESIAN_POINT('',(0.,0.,3.));
#2360=DIRECTION('',(1.,0.,0.));
#2370=VECTOR('',#2360,1.);
#2380=LINE('',#2350,#2370);
#2390=EDGE_CURVE('',#1170,#2320,#2380,.T.);
#2400=ORIENTED_EDGE('',*,*,#2390,.T.);
#2410=ORIENTED_EDGE('',*,*,#1180,.F.);
#2420=ORIENTED_EDGE('',*,*,#870,.F.);
#2430=CARTESIAN_POINT('',(-5.80947501931112,1.5,3.));
#2440=DIRECTION('',(0.,0.,1.));
#2450=DIRECTION('',(1.,0.,0.));
#2460=AXIS2_PLACEMENT_3D('',#2430,#2440,#2450);
#2470=CIRCLE('',#2460,0.5);
#2480=EDGE_CURVE('',#780,#310,#2470,.T.);
#2490=ORIENTED_EDGE('',*,*,#2480,.F.);
#2500=ORIENTED_EDGE('',*,*,#320,.T.);
#2510=CARTESIAN_POINT('',(5.80947501931113,1.5,3.));
#2520=DIRECTION('',(0.,0.,-1.));
#2530=DIRECTION('',(-1.,0.,0.));
#2540=AXIS2_PLACEMENT_3D('',#2510,#2520,#2530);
#2550=CIRCLE('',#2540,0.5);
#2560=CARTESIAN_POINT('',(5.80947501931113,1.,3.));
#2570=VERTEX_POINT('',#2560);
#2580=EDGE_CURVE('',#2570,#220,#2550,.T.);
#2590=ORIENTED_EDGE('',*,*,#2580,.T.);
#2600=CARTESIAN_POINT('',(0.,1.,3.));
#2610=DIRECTION('',(-1.,0.,0.));
#2620=VECTOR('',#2610,1.);
#2630=LINE('',#2600,#2620);
#2640=EDGE_CURVE('',#1810,#2570,#2630,.T.);
#2650=ORIENTED_EDGE('',*,*,#2640,.T.);
#2660=ORIENTED_EDGE('',*,*,#1820,.T.);
#2670=CARTESIAN_POINT('',(0.,0.,3.));
#2680=DIRECTION('',(-1.,0.,0.));
#2690=VECTOR('',#2680,1.);
#2700=LINE('',#2670,#2690);
#2710=EDGE_CURVE('',#1730,#2140,#2700,.T.);
#2720=ORIENTED_EDGE('',*,*,#2710,.F.);
#2730=EDGE_LOOP('',(#2720,#2660,#2650,#2590,#2500,#2490,#2420,#2410,
#2400,#2340,#2250,#2160));
#2740=FACE_OUTER_BOUND('',#2730,.T.);
#2750=ADVANCED_FACE('',(#2740),#2050,.T.);
#2760=CARTESIAN_POINT('',(9.,1.0273275,0.));
#2770=DIRECTION('',(0.,1.,0.));
#2780=DIRECTION('',(-1.,0.,0.));
#2790=AXIS2_PLACEMENT_3D('',#2760,#2770,#2780);
#2800=CYLINDRICAL_SURFACE('',#2790,1.75);
#2810=CARTESIAN_POINT('',(10.75,1.0273275,-2.14313189850787E-16));
#2820=DIRECTION('',(0.,1.,0.));
#2830=VECTOR('',#2820,1.);
#2840=LINE('',#2810,#2830);
#2850=CARTESIAN_POINT('',(10.75,0.,-2.14313189850787E-16));
#2860=VERTEX_POINT('',#2850);
#2870=CARTESIAN_POINT('',(10.75,1.,-2.14313189850787E-16));
#2880=VERTEX_POINT('',#2870);
#2890=EDGE_CURVE('',#2860,#2880,#2840,.T.);
#2900=ORIENTED_EDGE('',*,*,#2890,.F.);
#2910=CARTESIAN_POINT('',(9.,1.,0.));
#2920=DIRECTION('',(0.,-1.,0.));
#2930=DIRECTION('',(-1.,0.,0.));
#2940=AXIS2_PLACEMENT_3D('',#2910,#2920,#2930);
#2950=CIRCLE('',#2940,1.75);
#2960=CARTESIAN_POINT('',(7.25,1.,0.));
#2970=VERTEX_POINT('',#2960);
#2980=EDGE_CURVE('',#2880,#2970,#2950,.T.);
#2990=ORIENTED_EDGE('',*,*,#2980,.F.);
#3000=CARTESIAN_POINT('',(7.25,1.0273275,0.));
#3010=DIRECTION('',(0.,1.,0.));
#3020=VECTOR('',#3010,1.);
#3030=LINE('',#3000,#3020);
#3040=CARTESIAN_POINT('',(7.25,0.,0.));
#3050=VERTEX_POINT('',#3040);
#3060=EDGE_CURVE('',#3050,#2970,#3030,.T.);
#3070=ORIENTED_EDGE('',*,*,#3060,.T.);
#3080=CARTESIAN_POINT('',(9.,0.,0.));
#3090=DIRECTION('',(0.,-1.,0.));
#3100=DIRECTION('',(-1.,0.,0.));
#3110=AXIS2_PLACEMENT_3D('',#3080,#3090,#3100);
#3120=CIRCLE('',#3110,1.75);
#3130=EDGE_CURVE('',#2860,#3050,#3120,.T.);
#3140=ORIENTED_EDGE('',*,*,#3130,.T.);
#3150=EDGE_LOOP('',(#3140,#3070,#2990,#2900));
#3160=FACE_OUTER_BOUND('',#3150,.T.);
#3170=ADVANCED_FACE('',(#3160),#2800,.F.);
#3180=CARTESIAN_POINT('',(-6.732954,0.,0.));
#3190=DIRECTION('',(-0.,-1.,-0.));
#3200=DIRECTION('',(-1.,0.,0.));
#3210=AXIS2_PLACEMENT_3D('',#3180,#3190,#3200);
#3220=PLANE('',#3210);
#3230=EDGE_CURVE('',#1390,#1480,#1550,.T.);
#3240=ORIENTED_EDGE('',*,*,#3230,.T.);
#3250=ORIENTED_EDGE('',*,*,#1560,.T.);
#3260=EDGE_LOOP('',(#3250,#3240));
#3270=FACE_BOUND('',#3260,.T.);
#3280=ORIENTED_EDGE('',*,*,#1240,.F.);
#3290=ORIENTED_EDGE('',*,*,#2390,.F.);
#3300=CARTESIAN_POINT('',(-5.80947501931112,8.88178419700125E-16,0.));
#3310=DIRECTION('',(0.,0.,1.));
#3320=VECTOR('',#3310,1.);
#3330=LINE('',#3300,#3320);
#3340=CARTESIAN_POINT('',(-5.80947501931112,8.88178419700125E-16,-3.));
#3350=VERTEX_POINT('',#3340);
#3360=EDGE_CURVE('',#3350,#2320,#3330,.T.);
#3370=ORIENTED_EDGE('',*,*,#3360,.T.);
#3380=CARTESIAN_POINT('',(0.,0.,-3.));
#3390=DIRECTION('',(1.,0.,0.));
#3400=VECTOR('',#3390,1.);
#3410=LINE('',#3380,#3400);
#3420=EDGE_CURVE('',#1080,#3350,#3410,.T.);
#3430=ORIENTED_EDGE('',*,*,#3420,.T.);
#3440=EDGE_LOOP('',(#3430,#3370,#3290,#3280));
#3450=FACE_OUTER_BOUND('',#3440,.T.);
#3460=ADVANCED_FACE('',(#3270,#3450),#3220,.T.);
#3470=CARTESIAN_POINT('',(0.,-4.,0.));
#3480=DIRECTION('',(0.,0.,1.));
#3490=DIRECTION('',(1.,0.,0.));
#3500=AXIS2_PLACEMENT_3D('',#3470,#3480,#3490);
#3510=CYLINDRICAL_SURFACE('',#3500,6.5);
#3520=CARTESIAN_POINT('',(0.,-4.,-3.));
#3530=DIRECTION('',(0.,0.,1.));
#3540=DIRECTION('',(1.,0.,0.));
#3550=AXIS2_PLACEMENT_3D('',#3520,#3530,#3540);
#3560=CIRCLE('',#3550,6.5);
#3570=CARTESIAN_POINT('',(4.72019845319029,0.46875,-3.));
#3580=VERTEX_POINT('',#3570);
#3590=CARTESIAN_POINT('',(-4.72019845319029,0.46875,-3.));
#3600=VERTEX_POINT('',#3590);
#3610=EDGE_CURVE('',#3580,#3600,#3560,.T.);
#3620=ORIENTED_EDGE('',*,*,#3610,.F.);
#3630=CARTESIAN_POINT('',(-4.72019845319029,0.468750000000001,0.));
#3640=DIRECTION('',(0.,0.,1.));
#3650=VECTOR('',#3640,1.);
#3660=LINE('',#3630,#3650);
#3670=EDGE_CURVE('',#3600,#2230,#3660,.T.);
#3680=ORIENTED_EDGE('',*,*,#3670,.F.);
#3690=ORIENTED_EDGE('',*,*,#2240,.T.);
#3700=CARTESIAN_POINT('',(4.72019845319029,0.46875,0.));
#3710=DIRECTION('',(0.,0.,1.));
#3720=VECTOR('',#3710,1.);
#3730=LINE('',#3700,#3720);
#3740=EDGE_CURVE('',#3580,#2120,#3730,.T.);
#3750=ORIENTED_EDGE('',*,*,#3740,.T.);
#3760=EDGE_LOOP('',(#3750,#3690,#3680,#3620));
#3770=FACE_OUTER_BOUND('',#3760,.T.);
#3780=ADVANCED_FACE('',(#3770),#3510,.F.);
#3790=CARTESIAN_POINT('',(5.1234753829798,0.,0.));
#3800=DIRECTION('',(-0.,-1.,-0.));
#3810=DIRECTION('',(-1.,0.,0.));
#3820=AXIS2_PLACEMENT_3D('',#3790,#3800,#3810);
#3830=PLANE('',#3820);
#3840=EDGE_CURVE('',#3050,#2860,#3120,.T.);
#3850=ORIENTED_EDGE('',*,*,#3840,.F.);
#3860=ORIENTED_EDGE('',*,*,#3130,.F.);
#3870=EDGE_LOOP('',(#3860,#3850));
#3880=FACE_BOUND('',#3870,.T.);
#3890=CARTESIAN_POINT('',(5.80947501931113,0.,0.));
#3900=DIRECTION('',(0.,0.,1.));
#3910=VECTOR('',#3900,1.);
#3920=LINE('',#3890,#3910);
#3930=CARTESIAN_POINT('',(5.80947501931113,0.,-3.));
#3940=VERTEX_POINT('',#3930);
#3950=EDGE_CURVE('',#3940,#2140,#3920,.T.);
#3960=ORIENTED_EDGE('',*,*,#3950,.F.);
#3970=ORIENTED_EDGE('',*,*,#2710,.T.);
#3980=ORIENTED_EDGE('',*,*,#1740,.T.);
#3990=CARTESIAN_POINT('',(0.,0.,-3.));
#4000=DIRECTION('',(-1.,0.,0.));
#4010=VECTOR('',#4000,1.);
#4020=LINE('',#3990,#4010);
#4030=EDGE_CURVE('',#1710,#3940,#4020,.T.);
#4040=ORIENTED_EDGE('',*,*,#4030,.F.);
#4050=EDGE_LOOP('',(#4040,#3980,#3970,#3960));
#4060=FACE_OUTER_BOUND('',#4050,.T.);
#4070=ADVANCED_FACE('',(#3880,#4060),#3830,.T.);
#4080=CARTESIAN_POINT('',(5.59016994374947,1.,0.));
#4090=DIRECTION('',(-0.,1.,0.));
#4100=DIRECTION('',(1.,0.,0.));
#4110=AXIS2_PLACEMENT_3D('',#4080,#4090,#4100);
#4120=PLANE('',#4110);
#4130=EDGE_CURVE('',#2970,#2880,#2950,.T.);
#4140=ORIENTED_EDGE('',*,*,#4130,.T.);
#4150=ORIENTED_EDGE('',*,*,#2980,.T.);
#4160=EDGE_LOOP('',(#4150,#4140));
#4170=FACE_BOUND('',#4160,.T.);
#4180=CARTESIAN_POINT('',(5.80947501931113,1.,0.));
#4190=DIRECTION('',(0.,0.,-1.));
#4200=VECTOR('',#4190,1.);
#4210=LINE('',#4180,#4200);
#4220=CARTESIAN_POINT('',(5.80947501931113,1.,-3.));
#4230=VERTEX_POINT('',#4220);
#4240=EDGE_CURVE('',#2570,#4230,#4210,.T.);
#4250=ORIENTED_EDGE('',*,*,#4240,.F.);
#4260=CARTESIAN_POINT('',(0.,1.,-3.));
#4270=DIRECTION('',(-1.,0.,0.));
#4280=VECTOR('',#4270,1.);
#4290=LINE('',#4260,#4280);
#4300=EDGE_CURVE('',#1890,#4230,#4290,.T.);
#4310=ORIENTED_EDGE('',*,*,#4300,.T.);
#4320=ORIENTED_EDGE('',*,*,#1900,.F.);
#4330=ORIENTED_EDGE('',*,*,#2640,.F.);
#4340=EDGE_LOOP('',(#4330,#4320,#4310,#4250));
#4350=FACE_OUTER_BOUND('',#4340,.T.);
#4360=ADVANCED_FACE('',(#4170,#4350),#4120,.T.);
#4370=CARTESIAN_POINT('',(5.80947501931113,1.5,0.));
#4380=DIRECTION('',(0.,0.,-1.));
#4390=DIRECTION('',(-1.,0.,0.));
#4400=AXIS2_PLACEMENT_3D('',#4370,#4380,#4390);
#4410=CYLINDRICAL_SURFACE('',#4400,0.5);
#4420=CARTESIAN_POINT('',(5.80947501931113,1.5,-3.));
#4430=DIRECTION('',(0.,0.,-1.));
#4440=DIRECTION('',(-1.,0.,0.));
#4450=AXIS2_PLACEMENT_3D('',#4420,#4430,#4440);
#4460=CIRCLE('',#4450,0.5);
#4470=EDGE_CURVE('',#4230,#120,#4460,.T.);
#4480=ORIENTED_EDGE('',*,*,#4470,.T.);
#4490=ORIENTED_EDGE('',*,*,#4240,.T.);
#4500=ORIENTED_EDGE('',*,*,#2580,.F.);
#4510=ORIENTED_EDGE('',*,*,#230,.F.);
#4520=EDGE_LOOP('',(#4510,#4500,#4490,#4480));
#4530=FACE_OUTER_BOUND('',#4520,.T.);
#4540=ADVANCED_FACE('',(#4530),#4410,.F.);
#4550=CARTESIAN_POINT('',(-5.80947501931112,1.5,0.));
#4560=DIRECTION('',(0.,0.,1.));
#4570=DIRECTION('',(1.,0.,0.));
#4580=AXIS2_PLACEMENT_3D('',#4550,#4560,#4570);
#4590=CYLINDRICAL_SURFACE('',#4580,0.5);
#4600=ORIENTED_EDGE('',*,*,#2480,.T.);
#4610=ORIENTED_EDGE('',*,*,#790,.T.);
#4620=CARTESIAN_POINT('',(-5.80947501931112,1.5,-3.));
#4630=DIRECTION('',(0.,0.,1.));
#4640=DIRECTION('',(1.,0.,0.));
#4650=AXIS2_PLACEMENT_3D('',#4620,#4630,#4640);
#4660=CIRCLE('',#4650,0.5);
#4670=EDGE_CURVE('',#700,#140,#4660,.T.);
#4680=ORIENTED_EDGE('',*,*,#4670,.F.);
#4690=ORIENTED_EDGE('',*,*,#380,.F.);
#4700=EDGE_LOOP('',(#4690,#4680,#4610,#4600));
#4710=FACE_OUTER_BOUND('',#4700,.T.);
#4720=ADVANCED_FACE('',(#4710),#4590,.F.);
#4730=CARTESIAN_POINT('',(-5.80947501931112,1.5,0.));
#4740=DIRECTION('',(0.,0.,1.));
#4750=DIRECTION('',(1.,0.,0.));
#4760=AXIS2_PLACEMENT_3D('',#4730,#4740,#4750);
#4770=CYLINDRICAL_SURFACE('',#4760,1.5);
#4780=CARTESIAN_POINT('',(-5.80947501931112,1.5,-3.));
#4790=DIRECTION('',(0.,0.,1.));
#4800=DIRECTION('',(1.,0.,0.));
#4810=AXIS2_PLACEMENT_3D('',#4780,#4790,#4800);
#4820=CIRCLE('',#4810,1.5);
#4830=EDGE_CURVE('',#3350,#3600,#4820,.T.);
#4840=ORIENTED_EDGE('',*,*,#4830,.T.);
#4850=ORIENTED_EDGE('',*,*,#3360,.F.);
#4860=ORIENTED_EDGE('',*,*,#2330,.F.);
#4870=ORIENTED_EDGE('',*,*,#3670,.T.);
#4880=EDGE_LOOP('',(#4870,#4860,#4850,#4840));
#4890=FACE_OUTER_BOUND('',#4880,.T.);
#4900=ADVANCED_FACE('',(#4890),#4770,.T.);
#4910=CARTESIAN_POINT('',(5.80947501931113,1.5,0.));
#4920=DIRECTION('',(0.,0.,1.));
#4930=DIRECTION('',(1.,0.,0.));
#4940=AXIS2_PLACEMENT_3D('',#4910,#4920,#4930);
#4950=CYLINDRICAL_SURFACE('',#4940,1.5);
#4960=ORIENTED_EDGE('',*,*,#2150,.F.);
#4970=ORIENTED_EDGE('',*,*,#3950,.T.);
#4980=CARTESIAN_POINT('',(5.80947501931113,1.5,-3.));
#4990=DIRECTION('',(0.,0.,1.));
#5000=DIRECTION('',(1.,0.,0.));
#5010=AXIS2_PLACEMENT_3D('',#4980,#4990,#5000);
#5020=CIRCLE('',#5010,1.5);
#5030=EDGE_CURVE('',#3580,#3940,#5020,.T.);
#5040=ORIENTED_EDGE('',*,*,#5030,.T.);
#5050=ORIENTED_EDGE('',*,*,#3740,.F.);
#5060=EDGE_LOOP('',(#5050,#5040,#4970,#4960));
#5070=FACE_OUTER_BOUND('',#5060,.T.);
#5080=ADVANCED_FACE('',(#5070),#4950,.T.);
#5090=ORIENTED_EDGE('',*,*,#3230,.F.);
#5100=ORIENTED_EDGE('',*,*,#1490,.F.);
#5110=ORIENTED_EDGE('',*,*,#570,.T.);
#5120=ORIENTED_EDGE('',*,*,#1400,.T.);
#5130=EDGE_LOOP('',(#5120,#5110,#5100,#5090));
#5140=FACE_OUTER_BOUND('',#5130,.T.);
#5150=ADVANCED_FACE('',(#5140),#1330,.F.);
#5160=ORIENTED_EDGE('',*,*,#4130,.F.);
#5170=ORIENTED_EDGE('',*,*,#2890,.T.);
#5180=ORIENTED_EDGE('',*,*,#3840,.T.);
#5190=ORIENTED_EDGE('',*,*,#3060,.F.);
#5200=EDGE_LOOP('',(#5190,#5180,#5170,#5160));
#5210=FACE_OUTER_BOUND('',#5200,.T.);
#5220=ADVANCED_FACE('',(#5210),#2800,.F.);
#5230=CARTESIAN_POINT('',(0.,0.,-3.));
#5240=DIRECTION('',(0.,0.,1.));
#5250=DIRECTION('',(1.,0.,0.));
#5260=AXIS2_PLACEMENT_3D('',#5230,#5240,#5250);
#5270=PLANE('',#5260);
#5280=ORIENTED_EDGE('',*,*,#4830,.F.);
#5290=ORIENTED_EDGE('',*,*,#3610,.T.);
#5300=ORIENTED_EDGE('',*,*,#5030,.F.);
#5310=ORIENTED_EDGE('',*,*,#4030,.T.);
#5320=ORIENTED_EDGE('',*,*,#1960,.F.);
#5330=ORIENTED_EDGE('',*,*,#4300,.F.);
#5340=ORIENTED_EDGE('',*,*,#4470,.F.);
#5350=ORIENTED_EDGE('',*,*,#150,.F.);
#5360=ORIENTED_EDGE('',*,*,#4670,.T.);
#5370=ORIENTED_EDGE('',*,*,#710,.T.);
#5380=ORIENTED_EDGE('',*,*,#1090,.T.);
#5390=ORIENTED_EDGE('',*,*,#3420,.F.);
#5400=EDGE_LOOP('',(#5390,#5380,#5370,#5360,#5350,#5340,#5330,#5320,
#5310,#5300,#5290,#5280));
#5410=FACE_OUTER_BOUND('',#5400,.T.);
#5420=ADVANCED_FACE('',(#5410),#5270,.F.);
#5430=CLOSED_SHELL('',(#420,#970,#1280,#1600,#2000,#2750,#3170,#3460,
#3780,#4070,#4360,#4540,#4720,#4900,#5080,#5150,#5220,#5420));
#5440=MANIFOLD_SOLID_BREP('',#5430);
#5450=CARTESIAN_POINT('',(0.,0.,0.));
#5460=DIRECTION('',(0.,0.,1.));
#5470=DIRECTION('',(1.,0.,0.));
#5480=AXIS2_PLACEMENT_3D('',#5450,#5460,#5470);
#5490=APPLICATION_CONTEXT(' ');
#5500=APPLICATION_PROTOCOL_DEFINITION(' ','automotive_design',1998,#5490
);
#5510=PRODUCT_CONTEXT('',#5490,'mechanical');
#5520=PRODUCT_DEFINITION_CONTEXT('part definition',#5490,'design');
#5530=PRODUCT('Zug','Zug','',(#5510));
#5540=PRODUCT_RELATED_PRODUCT_CATEGORY('part',' ',(#5530));
#5550=PRODUCT_DEFINITION_FORMATION_WITH_SPECIFIED_SOURCE('','',#5530,
.BOUGHT.);
#5560=PRODUCT_DEFINITION('',' ',#5550,#5520);
#5570=PRODUCT_DEFINITION_SHAPE('','',#5560);
#5580=DIMENSIONAL_EXPONENTS(1.,0.,0.,0.,0.,0.,0.);
#5590=DIMENSIONAL_EXPONENTS(0.,0.,0.,0.,0.,0.,0.);
#5600=DIMENSIONAL_EXPONENTS(0.,0.,0.,0.,0.,0.,0.);
#5610=(LENGTH_UNIT() NAMED_UNIT(*) SI_UNIT(.MILLI.,.METRE.));
#5620=(NAMED_UNIT(*) PLANE_ANGLE_UNIT() SI_UNIT($,.RADIAN.));
#5630=(NAMED_UNIT(*) SI_UNIT($,.STERADIAN.) SOLID_ANGLE_UNIT());
#5640=(GEOMETRIC_REPRESENTATION_CONTEXT(3) 
GLOBAL_UNCERTAINTY_ASSIGNED_CONTEXT((#5650)) 
GLOBAL_UNIT_ASSIGNED_CONTEXT((#5610,#5620,#5630)) REPRESENTATION_CONTEXT
('',''));
#5650=UNCERTAINTY_MEASURE_WITH_UNIT(LENGTH_MEASURE(1.E-6),#5610,
'distance_accuracy_value','maximum gap value');
#5660=ADVANCED_BREP_SHAPE_REPRESENTATION('',(#5480,#5440),#5640);
#5670=SHAPE_DEFINITION_REPRESENTATION(#5570,#5660);
#5680=COLOUR_RGB('',0.600000023841858,0.600000023841858,
0.600000023841858);
#5690=FILL_AREA_STYLE_COLOUR('',#5680);
#5700=FILL_AREA_STYLE('',(#5690));
#5710=SURFACE_STYLE_FILL_AREA(#5700);
#5720=SURFACE_SIDE_STYLE('',(#5710));
#5730=SURFACE_STYLE_USAGE(.BOTH.,#5720);
#5740=PRESENTATION_STYLE_ASSIGNMENT((#5730));
#5750=STYLED_ITEM('',(#5740),#5440);
#5760=DRAUGHTING_MODEL('',(#5750),#5640);
ENDSEC;
END-ISO-10303-21;
