ISO-10303-21;
HEADER;
FILE_DESCRIPTION (( 'STEP AP214' ),
    '1' );
FILE_NAME ('1147130.stp',
    '2022-02-10T10:42:22',
    ( '' ),
    ( '' ),
    'SwSTEP 2.0',
    'SolidWorks 2020',
    '' );
FILE_SCHEMA (( 'AUTOMOTIVE_DESIGN' ));
ENDSEC;

DATA;
#1 = VECTOR ( 'NONE', #69, 999.9999999999998863 ) ;
#2 = MECHANICAL_DESIGN_GEOMETRIC_PRESENTATION_REPRESENTATION (  '', ( #166 ), #50 ) ;
#3 = FACE_OUTER_BOUND ( 'NONE', #340, .T. ) ;
#4 = ORIENTED_EDGE ( 'NONE', *, *, #270, .T. ) ;
#5 = ORIENTED_EDGE ( 'NONE', *, *, #213, .T. ) ;
#6 = CARTESIAN_POINT ( 'NONE',  ( -8.000000000000000000, 3.000000000000000000, -8.500000000000000000 ) ) ;
#7 = EDGE_CURVE ( 'NONE', #283, #203, #73, .T. ) ;
#8 = VERTEX_POINT ( 'NONE', #75 ) ;
#9 = SURFACE_SIDE_STYLE ('',( #128 ) ) ;
#10 = PRODUCT_DEFINITION_SHAPE ( 'NONE', 'NONE',  #280 ) ;
#11 = DIRECTION ( 'NONE',  ( 0.000000000000000000, 0.000000000000000000, 1.000000000000000000 ) ) ;
#12 = FILL_AREA_STYLE ('',( #183 ) ) ;
#13 = DIRECTION ( 'NONE',  ( -1.000000000000000000, 0.000000000000000000, 0.000000000000000000 ) ) ;
#14 = CARTESIAN_POINT ( 'NONE',  ( 8.000000000000000000, 3.000000000000000000, 8.500000000000000000 ) ) ;
#15 = ADVANCED_FACE ( 'NONE', ( #182 ), #345, .F. ) ;
#16 = CARTESIAN_POINT ( 'NONE',  ( -17.50000000000000000, 10.00000000000000000, -8.500000000000000000 ) ) ;
#17 = ADVANCED_BREP_SHAPE_REPRESENTATION ( '1147130', ( #353, #310 ), #346 ) ;
#18 = ORIENTED_EDGE ( 'NONE', *, *, #164, .T. ) ;
#19 = FACE_OUTER_BOUND ( 'NONE', #234, .T. ) ;
#20 = EDGE_CURVE ( 'NONE', #89, #285, #271, .T. ) ;
#21 = FACE_OUTER_BOUND ( 'NONE', #269, .T. ) ;
#22 = LINE ( 'NONE', #360, #23 ) ;
#23 = VECTOR ( 'NONE', #303, 1000.000000000000000 ) ;
#24 = DIRECTION ( 'NONE',  ( 0.000000000000000000, -1.000000000000000000, 0.000000000000000000 ) ) ;
#25 = DIRECTION ( 'NONE',  ( -0.000000000000000000, -1.000000000000000000, -0.000000000000000000 ) ) ;
#26 = DIRECTION ( 'NONE',  ( 0.000000000000000000, 0.000000000000000000, -1.000000000000000000 ) ) ;
#27 = AXIS2_PLACEMENT_3D ( 'NONE', #223, #197, #62 ) ;
#28 = DIRECTION ( 'NONE',  ( 0.9535826651341416937, 0.3011313679370973273, 0.000000000000000000 ) ) ;
#29 = ORIENTED_EDGE ( 'NONE', *, *, #97, .F. ) ;
#30 = CARTESIAN_POINT ( 'NONE',  ( 17.50000000000000000, 10.00000000000000178, 8.500000000000000000 ) ) ;
#31 = ORIENTED_EDGE ( 'NONE', *, *, #70, .T. ) ;
#32 = CIRCLE ( 'NONE', #315, 3.500000000000000000 ) ;
#33 = DIRECTION ( 'NONE',  ( -0.3011313679370973273, 0.9535826651341416937, 0.000000000000000000 ) ) ;
#34 = VERTEX_POINT ( 'NONE', #162 ) ;
#35 = ADVANCED_FACE ( 'NONE', ( #42, #19 ), #322, .F. ) ;
#36 = LINE ( 'NONE', #256, #193 ) ;
#37 = VERTEX_POINT ( 'NONE', #267 ) ;
#38 = DIRECTION ( 'NONE',  ( 0.000000000000000000, -1.000000000000000000, 0.000000000000000000 ) ) ;
#39 = CARTESIAN_POINT ( 'NONE',  ( 17.50000000000000000, -0.0009999999999992653654, 8.500000000000000000 ) ) ;
#40 = ORIENTED_EDGE ( 'NONE', *, *, #342, .T. ) ;
#41 = DIRECTION ( 'NONE',  ( 0.000000000000000000, 0.000000000000000000, 1.000000000000000000 ) ) ;
#42 = FACE_BOUND ( 'NONE', #330, .T. ) ;
#43 = AXIS2_PLACEMENT_3D ( 'NONE', #279, #140, #66 ) ;
#44 = ORIENTED_EDGE ( 'NONE', *, *, #289, .T. ) ;
#45 = EDGE_CURVE ( 'NONE', #37, #8, #351, .T. ) ;
#46 = DIRECTION ( 'NONE',  ( 0.9535826651341416937, -0.3011313679370973273, 0.000000000000000000 ) ) ;
#47 = DIRECTION ( 'NONE',  ( 1.000000000000000000, 0.000000000000000000, -0.000000000000000000 ) ) ;
#48 = CYLINDRICAL_SURFACE ( 'NONE', #332, 3.500000000000000000 ) ;
#49 = EDGE_LOOP ( 'NONE', ( #91, #229, #5, #139 ) ) ;
#50 =( GEOMETRIC_REPRESENTATION_CONTEXT ( 3 ) GLOBAL_UNCERTAINTY_ASSIGNED_CONTEXT ( ( #77 ) ) GLOBAL_UNIT_ASSIGNED_CONTEXT ( ( #55, #60, #151 ) ) REPRESENTATION_CONTEXT ( 'NONE', 'WORKASPACE' ) );
#51 = CARTESIAN_POINT ( 'NONE',  ( -17.50000000000000000, -0.001000000000002734812, -8.500000000000000000 ) ) ;
#52 = EDGE_CURVE ( 'NONE', #367, #145, #187, .T. ) ;
#53 = CARTESIAN_POINT ( 'NONE',  ( 0.000000000000000000, 17.00000000000000000, 5.944591164848680122E-16 ) ) ;
#54 = VERTEX_POINT ( 'NONE', #16 ) ;
#55 =( LENGTH_UNIT ( ) NAMED_UNIT ( * ) SI_UNIT ( .MILLI., .METRE. ) );
#56 = AXIS2_PLACEMENT_3D ( 'NONE', #238, #38, #212 ) ;
#57 = EDGE_CURVE ( 'NONE', #224, #285, #264, .T. ) ;
#58 = SURFACE_STYLE_FILL_AREA ( #174 ) ;
#59 = EDGE_LOOP ( 'NONE', ( #18, #80, #31, #68 ) ) ;
#60 =( NAMED_UNIT ( * ) PLANE_ANGLE_UNIT ( ) SI_UNIT ( $, .RADIAN. ) );
#61 = ORIENTED_EDGE ( 'NONE', *, *, #45, .F. ) ;
#62 = DIRECTION ( 'NONE',  ( 0.000000000000000000, 0.000000000000000000, -1.000000000000000000 ) ) ;
#63 = ORIENTED_EDGE ( 'NONE', *, *, #7, .T. ) ;
#64 = ADVANCED_FACE ( 'NONE', ( #319 ), #71, .F. ) ;
#65 = VECTOR ( 'NONE', #274, 1000.000000000000114 ) ;
#66 = DIRECTION ( 'NONE',  ( 0.000000000000000000, -0.000000000000000000, 1.000000000000000000 ) ) ;
#67 = VERTEX_POINT ( 'NONE', #296 ) ;
#68 = ORIENTED_EDGE ( 'NONE', *, *, #123, .F. ) ;
#69 = DIRECTION ( 'NONE',  ( 0.9535826651341416937, -0.3011313679370973273, 0.000000000000000000 ) ) ;
#70 = EDGE_CURVE ( 'NONE', #348, #367, #127, .T. ) ;
#71 = PLANE ( 'NONE',  #85 ) ;
#72 = CARTESIAN_POINT ( 'NONE',  ( 17.50000000000000000, 10.00000000000000000, -8.500000000000000000 ) ) ;
#73 = LINE ( 'NONE', #158, #135 ) ;
#74 = AXIS2_PLACEMENT_3D ( 'NONE', #142, #33, #314 ) ;
#75 = CARTESIAN_POINT ( 'NONE',  ( -8.000000000000000000, 3.000000000000000000, 8.500000000000000000 ) ) ;
#76 = CARTESIAN_POINT ( 'NONE',  ( 8.000000000000000000, 2.168404344971008868E-16, 8.500000000000000000 ) ) ;
#77 = UNCERTAINTY_MEASURE_WITH_UNIT (LENGTH_MEASURE( 1.000000000000000082E-05 ), #55, 'distance_accuracy_value', 'NONE');
#78 = DIRECTION ( 'NONE',  ( -0.1736481776669314692, -0.000000000000000000, -0.9848077530122079093 ) ) ;
#79 = DIRECTION ( 'NONE',  ( -0.000000000000000000, 0.000000000000000000, -1.000000000000000000 ) ) ;
#80 = ORIENTED_EDGE ( 'NONE', *, *, #249, .T. ) ;
#81 = FACE_OUTER_BOUND ( 'NONE', #117, .T. ) ;
#82 = CARTESIAN_POINT ( 'NONE',  ( -17.50000949367015224, -2.998001100200042181E-06, -8.500053841278930378 ) ) ;
#83 = EDGE_CURVE ( 'NONE', #224, #232, #344, .T. ) ;
#84 = ORIENTED_EDGE ( 'NONE', *, *, #231, .F. ) ;
#85 = AXIS2_PLACEMENT_3D ( 'NONE', #208, #324, #11 ) ;
#86 = DIRECTION ( 'NONE',  ( -0.000000000000000000, 0.000000000000000000, 1.000000000000000000 ) ) ;
#87 = ORIENTED_EDGE ( 'NONE', *, *, #305, .T. ) ;
#88 = VERTEX_POINT ( 'NONE', #178 ) ;
#89 = VERTEX_POINT ( 'NONE', #321 ) ;
#90 = DIRECTION ( 'NONE',  ( -0.9535826651341416937, 0.3011313679370973273, 0.000000000000000000 ) ) ;
#91 = ORIENTED_EDGE ( 'NONE', *, *, #294, .T. ) ;
#92 = PRESENTATION_LAYER_ASSIGNMENT (  '', '', ( #218 ) ) ;
#93 = AXIS2_PLACEMENT_3D ( 'NONE', #200, #290, #116 ) ;
#94 = ORIENTED_EDGE ( 'NONE', *, *, #231, .T. ) ;
#95 = PRODUCT_CONTEXT ( 'NONE', #190, 'mechanical' ) ;
#96 = ORIENTED_EDGE ( 'NONE', *, *, #243, .T. ) ;
#97 = EDGE_CURVE ( 'NONE', #54, #67, #131, .T. ) ;
#98 = DIRECTION ( 'NONE',  ( -0.000000000000000000, -0.000000000000000000, -1.000000000000000000 ) ) ;
#99 = VECTOR ( 'NONE', #105, 1000.000000000000000 ) ;
#100 =( NAMED_UNIT ( * ) SI_UNIT ( $, .STERADIAN. ) SOLID_ANGLE_UNIT ( ) );
#101 = PRESENTATION_LAYER_ASSIGNMENT (  '', '', ( #166 ) ) ;
#102 = ORIENTED_EDGE ( 'NONE', *, *, #52, .F. ) ;
#103 = EDGE_CURVE ( 'NONE', #348, #54, #265, .T. ) ;
#104 = CARTESIAN_POINT ( 'NONE',  ( 17.50000000000000000, 2.168404344971008868E-16, 8.500000000000000000 ) ) ;
#105 = DIRECTION ( 'NONE',  ( 0.000000000000000000, 1.000000000000000000, 0.000000000000000000 ) ) ;
#106 = VECTOR ( 'NONE', #235, 1000.000000000000114 ) ;
#107 = DIRECTION ( 'NONE',  ( 0.9848077530122079093, 9.762109305567119065E-17, -0.1736481776669314692 ) ) ;
#108 = DIRECTION ( 'NONE',  ( 1.000000000000000000, 0.000000000000000000, 0.000000000000000000 ) ) ;
#109 = EDGE_LOOP ( 'NONE', ( #173 ) ) ;
#110 = UNCERTAINTY_MEASURE_WITH_UNIT (LENGTH_MEASURE( 1.000000000000000082E-05 ), #343, 'distance_accuracy_value', 'NONE');
#111 = CARTESIAN_POINT ( 'NONE',  ( 8.000000000000000000, 2.168404344971008868E-16, 8.500000000000000000 ) ) ;
#112 = LINE ( 'NONE', #82, #204 ) ;
#113 = VECTOR ( 'NONE', #250, 1000.000000000000000 ) ;
#114 = LINE ( 'NONE', #355, #170 ) ;
#115 = PRODUCT_RELATED_PRODUCT_CATEGORY ( 'part', '', ( #237 ) ) ;
#116 = DIRECTION ( 'NONE',  ( 1.000000000000000000, 0.000000000000000000, 0.000000000000000000 ) ) ;
#117 = EDGE_LOOP ( 'NONE', ( #125, #152, #143, #4 ) ) ;
#118 = FACE_OUTER_BOUND ( 'NONE', #365, .T. ) ;
#119 = ORIENTED_EDGE ( 'NONE', *, *, #52, .T. ) ;
#120 = CLOSED_SHELL ( 'NONE', ( #225, #298, #64, #323, #35, #328, #312, #368, #160, #15, #154 ) ) ;
#121 = CARTESIAN_POINT ( 'NONE',  ( 0.000000000000000000, 0.000000000000000000, -8.500000000000000000 ) ) ;
#122 = ORIENTED_EDGE ( 'NONE', *, *, #220, .F. ) ;
#123 = EDGE_CURVE ( 'NONE', #232, #367, #129, .T. ) ;
#124 = PLANE ( 'NONE',  #356 ) ;
#125 = ORIENTED_EDGE ( 'NONE', *, *, #209, .T. ) ;
#126 = ORIENTED_EDGE ( 'NONE', *, *, #83, .F. ) ;
#127 = LINE ( 'NONE', #210, #106 ) ;
#128 = SURFACE_STYLE_FILL_AREA ( #12 ) ;
#129 = LINE ( 'NONE', #104, #347 ) ;
#130 =( NAMED_UNIT ( * ) PLANE_ANGLE_UNIT ( ) SI_UNIT ( $, .RADIAN. ) );
#131 = LINE ( 'NONE', #239, #307 ) ;
#132 = ORIENTED_EDGE ( 'NONE', *, *, #83, .T. ) ;
#133 = CARTESIAN_POINT ( 'NONE',  ( 17.50000000000000000, 10.00000000000000000, 8.500000000000000000 ) ) ;
#134 = DIRECTION ( 'NONE',  ( -0.1736481776669314692, 0.000000000000000000, -0.9848077530122079093 ) ) ;
#135 = VECTOR ( 'NONE', #189, 1000.000000000000000 ) ;
#136 = CARTESIAN_POINT ( 'NONE',  ( -8.000000000000000000, 2.168404344971008868E-16, -8.500000000000000000 ) ) ;
#137 = FACE_OUTER_BOUND ( 'NONE', #109, .T. ) ;
#138 = FACE_OUTER_BOUND ( 'NONE', #352, .T. ) ;
#139 = ORIENTED_EDGE ( 'NONE', *, *, #97, .T. ) ;
#140 = DIRECTION ( 'NONE',  ( 0.000000000000000000, 1.000000000000000000, 0.000000000000000000 ) ) ;
#141 = AXIS2_PLACEMENT_3D ( 'NONE', #226, #147, #90 ) ;
#142 = CARTESIAN_POINT ( 'NONE',  ( -17.50000000000000000, 2.168404344971008868E-16, 8.500000000000000000 ) ) ;
#143 = ORIENTED_EDGE ( 'NONE', *, *, #7, .F. ) ;
#144 = FACE_OUTER_BOUND ( 'NONE', #288, .T. ) ;
#145 = VERTEX_POINT ( 'NONE', #297 ) ;
#146 = PRODUCT_DEFINITION_CONTEXT ( 'detailed design', #272, 'design' ) ;
#147 = DIRECTION ( 'NONE',  ( 0.3011313679370973273, 0.9535826651341416937, -0.000000000000000000 ) ) ;
#148 = ORIENTED_EDGE ( 'NONE', *, *, #103, .T. ) ;
#149 = LINE ( 'NONE', #366, #251 ) ;
#150 = ORIENTED_EDGE ( 'NONE', *, *, #358, .F. ) ;
#151 =( NAMED_UNIT ( * ) SI_UNIT ( $, .STERADIAN. ) SOLID_ANGLE_UNIT ( ) );
#152 = ORIENTED_EDGE ( 'NONE', *, *, #205, .F. ) ;
#153 = PRESENTATION_STYLE_ASSIGNMENT (( #266 ) ) ;
#154 = ADVANCED_FACE ( 'NONE', ( #137, #21 ), #48, .F. ) ;
#155 = DIRECTION ( 'NONE',  ( -1.000000000000000000, 0.000000000000000000, 0.000000000000000000 ) ) ;
#156 = VECTOR ( 'NONE', #108, 1000.000000000000000 ) ;
#157 = DIRECTION ( 'NONE',  ( 0.000000000000000000, -1.000000000000000000, 0.000000000000000000 ) ) ;
#158 = CARTESIAN_POINT ( 'NONE',  ( -8.000000000000000000, 2.168404344971008868E-16, 8.500000000000000000 ) ) ;
#159 = CARTESIAN_POINT ( 'NONE',  ( -17.50000000000000000, 2.168404344971008868E-16, 8.500000000000000000 ) ) ;
#160 = ADVANCED_FACE ( 'NONE', ( #191 ), #245, .F. ) ;
#161 = VECTOR ( 'NONE', #359, 1000.000000000000000 ) ;
#162 = CARTESIAN_POINT ( 'NONE',  ( -8.000000000000000000, 3.000000000000000000, -8.500000000000000000 ) ) ;
#163 = DIRECTION ( 'NONE',  ( -9.912705577010325549E-17, 1.000000000000000000, -0.000000000000000000 ) ) ;
#164 = EDGE_CURVE ( 'NONE', #232, #202, #168, .T. ) ;
#165 = LINE ( 'NONE', #361, #357 ) ;
#166 = STYLED_ITEM ( 'NONE', ( #171 ), #353 ) ;
#167 = CARTESIAN_POINT ( 'NONE',  ( 14.50244132795608465, 0.9465974753822894439, -8.500000000000000000 ) ) ;
#168 = LINE ( 'NONE', #300, #65 ) ;
#169 = CARTESIAN_POINT ( 'NONE',  ( 17.50000000000000000, 2.168404344971008868E-16, 8.500000000000000000 ) ) ;
#170 = VECTOR ( 'NONE', #301, 1000.000000000000000 ) ;
#171 = PRESENTATION_STYLE_ASSIGNMENT (( #254 ) ) ;
#172 = PRODUCT_DEFINITION_FORMATION_WITH_SPECIFIED_SOURCE ( 'ANY', '', #237, .NOT_KNOWN. ) ;
#173 = ORIENTED_EDGE ( 'NONE', *, *, #358, .T. ) ;
#174 = FILL_AREA_STYLE ('',( #233 ) ) ;
#175 = ORIENTED_EDGE ( 'NONE', *, *, #70, .F. ) ;
#176 = COLOUR_RGB ( '',0.7529411764705882248, 0.7529411764705882248, 0.7529411764705882248 ) ;
#177 = ORIENTED_EDGE ( 'NONE', *, *, #180, .T. ) ;
#178 = CARTESIAN_POINT ( 'NONE',  ( 0.000000000000000000, 10.00000000000000000, -3.499999999999999556 ) ) ;
#179 = ORIENTED_EDGE ( 'NONE', *, *, #342, .F. ) ;
#180 = EDGE_CURVE ( 'NONE', #285, #202, #214, .T. ) ;
#181 = ORIENTED_EDGE ( 'NONE', *, *, #20, .T. ) ;
#182 = FACE_OUTER_BOUND ( 'NONE', #59, .T. ) ;
#183 = FILL_AREA_STYLE_COLOUR ( '', #176 ) ;
#184 = CARTESIAN_POINT ( 'NONE',  ( 8.000000000000000000, 2.168404344971008868E-16, -8.500000000000000000 ) ) ;
#185 =( LENGTH_UNIT ( ) NAMED_UNIT ( * ) SI_UNIT ( .MILLI., .METRE. ) );
#186 = DIRECTION ( 'NONE',  ( 0.000000000000000000, 1.000000000000000000, 0.000000000000000000 ) ) ;
#187 = LINE ( 'NONE', #133, #188 ) ;
#188 = VECTOR ( 'NONE', #155, 1000.000000000000000 ) ;
#189 = DIRECTION ( 'NONE',  ( 1.000000000000000000, 0.000000000000000000, 0.000000000000000000 ) ) ;
#190 = APPLICATION_CONTEXT ( 'automotive_design' ) ;
#191 = FACE_OUTER_BOUND ( 'NONE', #49, .T. ) ;
#192 = CARTESIAN_POINT ( 'NONE',  ( 0.000000000000000000, 10.00000000000000000, 5.944591164848680122E-16 ) ) ;
#193 = VECTOR ( 'NONE', #337, 1000.000000000000000 ) ;
#194 = DIRECTION ( 'NONE',  ( 0.000000000000000000, 1.000000000000000000, 0.000000000000000000 ) ) ;
#195 = PLANE ( 'NONE',  #43 ) ;
#196 = LINE ( 'NONE', #6, #349 ) ;
#197 = DIRECTION ( 'NONE',  ( 0.000000000000000000, -1.000000000000000000, 0.000000000000000000 ) ) ;
#198 = VECTOR ( 'NONE', #98, 1000.000000000000000 ) ;
#199 = ORIENTED_EDGE ( 'NONE', *, *, #243, .F. ) ;
#200 = CARTESIAN_POINT ( 'NONE',  ( 0.000000000000000000, 0.000000000000000000, 8.500000000000000000 ) ) ;
#201 = ORIENTED_EDGE ( 'NONE', *, *, #209, .F. ) ;
#202 = VERTEX_POINT ( 'NONE', #167 ) ;
#203 = VERTEX_POINT ( 'NONE', #76 ) ;
#204 = VECTOR ( 'NONE', #221, 1000.000000000000227 ) ;
#205 = EDGE_CURVE ( 'NONE', #203, #89, #114, .T. ) ;
#206 = APPLICATION_PROTOCOL_DEFINITION ( 'draft international standard', 'automotive_design', 1998, #190 ) ;
#207 = ORIENTED_EDGE ( 'NONE', *, *, #294, .F. ) ;
#208 = CARTESIAN_POINT ( 'NONE',  ( 8.000000000000000000, 2.168404344971008868E-16, 8.500000000000000000 ) ) ;
#209 = EDGE_CURVE ( 'NONE', #339, #89, #327, .T. ) ;
#210 = CARTESIAN_POINT ( 'NONE',  ( 17.50000000000000000, 10.00000000000000178, 8.500000000000000000 ) ) ;
#211 = ORIENTED_EDGE ( 'NONE', *, *, #350, .T. ) ;
#212 = DIRECTION ( 'NONE',  ( 0.000000000000000000, -0.000000000000000000, -1.000000000000000000 ) ) ;
#213 = EDGE_CURVE ( 'NONE', #145, #54, #222, .T. ) ;
#214 = LINE ( 'NONE', #278, #325 ) ;
#215 = LINE ( 'NONE', #111, #362 ) ;
#216 = CARTESIAN_POINT ( 'NONE',  ( 8.000000000000000000, 3.000000000000000000, 8.500000000000000000 ) ) ;
#217 = ORIENTED_EDGE ( 'NONE', *, *, #270, .F. ) ;
#218 = STYLED_ITEM ( 'NONE', ( #153 ), #17 ) ;
#219 = AXIS2_PLACEMENT_3D ( 'NONE', #51, #107, #134 ) ;
#220 = EDGE_CURVE ( 'NONE', #37, #145, #22, .T. ) ;
#221 = DIRECTION ( 'NONE',  ( 0.1733876835661140869, 0.05475400533666761188, 0.9833304175541246472 ) ) ;
#222 = LINE ( 'NONE', #334, #295 ) ;
#223 = CARTESIAN_POINT ( 'NONE',  ( 0.000000000000000000, 0.000000000000000000, 5.944591164848680122E-16 ) ) ;
#224 = VERTEX_POINT ( 'NONE', #216 ) ;
#225 = ADVANCED_FACE ( 'NONE', ( #138 ), #276, .F. ) ;
#226 = CARTESIAN_POINT ( 'NONE',  ( 8.000000000000000000, 3.000000000000000000, 8.500000000000000000 ) ) ;
#227 = ORIENTED_EDGE ( 'NONE', *, *, #249, .F. ) ;
#228 = DIRECTION ( 'NONE',  ( 1.000000000000000000, 0.000000000000000000, 0.000000000000000000 ) ) ;
#229 = ORIENTED_EDGE ( 'NONE', *, *, #220, .T. ) ;
#230 = CARTESIAN_POINT ( 'NONE',  ( 0.000000000000000000, 0.000000000000000000, -3.499999999999999556 ) ) ;
#231 = EDGE_CURVE ( 'NONE', #8, #34, #331, .T. ) ;
#232 = VERTEX_POINT ( 'NONE', #169 ) ;
#233 = FILL_AREA_STYLE_COLOUR ( '', #320 ) ;
#234 = EDGE_LOOP ( 'NONE', ( #102, #175, #148, #311 ) ) ;
#235 = DIRECTION ( 'NONE',  ( 0.1736481776669312749, -0.000000000000000000, 0.9848077530122079093 ) ) ;
#236 =( NAMED_UNIT ( * ) PLANE_ANGLE_UNIT ( ) SI_UNIT ( $, .RADIAN. ) );
#237 = PRODUCT ( '1147130', '1147130', '', ( #95 ) ) ;
#238 = CARTESIAN_POINT ( 'NONE',  ( 17.50000000000000000, 10.00000000000000000, 8.500000000000000000 ) ) ;
#239 = CARTESIAN_POINT ( 'NONE',  ( -17.50000000000000000, 10.00000000000000000, -8.500000000000000000 ) ) ;
#240 = APPLICATION_PROTOCOL_DEFINITION ( 'draft international standard', 'automotive_design', 1998, #272 ) ;
#241 = ORIENTED_EDGE ( 'NONE', *, *, #205, .T. ) ;
#242 = EDGE_LOOP ( 'NONE', ( #122, #341, #211, #63, #44, #132, #292, #119 ) ) ;
#243 = EDGE_CURVE ( 'NONE', #88, #88, #32, .T. ) ;
#244 = CARTESIAN_POINT ( 'NONE',  ( 8.000000000000000000, 3.000000000000000000, 8.500000000000000000 ) ) ;
#245 = PLANE ( 'NONE',  #219 ) ;
#246 = CARTESIAN_POINT ( 'NONE',  ( -8.000000000000000000, 3.000000000000000000, 8.500000000000000000 ) ) ;
#247 = MECHANICAL_DESIGN_GEOMETRIC_PRESENTATION_REPRESENTATION (  '', ( #218 ), #277 ) ;
#248 = CARTESIAN_POINT ( 'NONE',  ( -8.000000000000000000, 2.168404344971008868E-16, 8.500000000000000000 ) ) ;
#249 = EDGE_CURVE ( 'NONE', #202, #348, #165, .T. ) ;
#250 = DIRECTION ( 'NONE',  ( -0.000000000000000000, -0.000000000000000000, -1.000000000000000000 ) ) ;
#251 = VECTOR ( 'NONE', #28, 999.9999999999998863 ) ;
#252 = SURFACE_SIDE_STYLE ('',( #58 ) ) ;
#253 = ORIENTED_EDGE ( 'NONE', *, *, #103, .F. ) ;
#254 = SURFACE_STYLE_USAGE ( .BOTH. , #252 ) ;
#255 = ORIENTED_EDGE ( 'NONE', *, *, #57, .F. ) ;
#256 = CARTESIAN_POINT ( 'NONE',  ( -8.000000000000000000, 3.000000000000000000, 8.500000000000000000 ) ) ;
#257 = AXIS2_PLACEMENT_3D ( 'NONE', #329, #47, #79 ) ;
#258 = CIRCLE ( 'NONE', #27, 3.500000000000000000 ) ;
#259 = EDGE_LOOP ( 'NONE', ( #181, #255, #313, #241 ) ) ;
#260 = ORIENTED_EDGE ( 'NONE', *, *, #57, .T. ) ;
#261 = VERTEX_POINT ( 'NONE', #230 ) ;
#262 = EDGE_LOOP ( 'NONE', ( #150 ) ) ;
#263 =( NAMED_UNIT ( * ) SI_UNIT ( $, .STERADIAN. ) SOLID_ANGLE_UNIT ( ) );
#264 = LINE ( 'NONE', #244, #198 ) ;
#265 = LINE ( 'NONE', #72, #336 ) ;
#266 = SURFACE_STYLE_USAGE ( .BOTH. , #9 ) ;
#267 = CARTESIAN_POINT ( 'NONE',  ( -14.50244132795607754, 0.9465974753822919974, 8.500000000000000000 ) ) ;
#268 = DIRECTION ( 'NONE',  ( 0.9535826651341416937, 0.3011313679370973273, 0.000000000000000000 ) ) ;
#269 = EDGE_LOOP ( 'NONE', ( #199 ) ) ;
#270 = EDGE_CURVE ( 'NONE', #283, #339, #363, .T. ) ;
#271 = LINE ( 'NONE', #184, #99 ) ;
#272 = APPLICATION_CONTEXT ( 'automotive_design' ) ;
#273 = CARTESIAN_POINT ( 'NONE',  ( 8.000000000000000000, 3.000000000000000000, -8.500000000000000000 ) ) ;
#274 = DIRECTION ( 'NONE',  ( -0.1733876835661139204, 0.05475400533666755637, -0.9833304175541246472 ) ) ;
#275 = VECTOR ( 'NONE', #268, 999.9999999999998863 ) ;
#276 = PLANE ( 'NONE',  #257 ) ;
#277 =( GEOMETRIC_REPRESENTATION_CONTEXT ( 3 ) GLOBAL_UNCERTAINTY_ASSIGNED_CONTEXT ( ( #326 ) ) GLOBAL_UNIT_ASSIGNED_CONTEXT ( ( #185, #130, #100 ) ) REPRESENTATION_CONTEXT ( 'NONE', 'WORKASPACE' ) );
#278 = CARTESIAN_POINT ( 'NONE',  ( 8.000000000000000000, 3.000000000000000000, -8.500000000000000000 ) ) ;
#279 = CARTESIAN_POINT ( 'NONE',  ( -8.000000000000000000, 2.168404344971008868E-16, 8.500000000000000000 ) ) ;
#280 = PRODUCT_DEFINITION ( 'UNKNOWN', '', #172, #146 ) ;
#281 = PLANE ( 'NONE',  #74 ) ;
#282 = CARTESIAN_POINT ( 'NONE',  ( -8.000000000000000000, 2.168404344971008868E-16, -8.500000000000000000 ) ) ;
#283 = VERTEX_POINT ( 'NONE', #248 ) ;
#284 = PLANE ( 'NONE',  #141 ) ;
#285 = VERTEX_POINT ( 'NONE', #273 ) ;
#286 = PLANE ( 'NONE',  #93 ) ;
#287 = AXIS2_PLACEMENT_3D ( 'NONE', #39, #354, #318 ) ;
#288 = EDGE_LOOP ( 'NONE', ( #61, #207, #87, #84 ) ) ;
#289 = EDGE_CURVE ( 'NONE', #203, #224, #215, .T. ) ;
#290 = DIRECTION ( 'NONE',  ( -0.000000000000000000, 0.000000000000000000, 1.000000000000000000 ) ) ;
#291 = ORIENTED_EDGE ( 'NONE', *, *, #164, .F. ) ;
#292 = ORIENTED_EDGE ( 'NONE', *, *, #123, .T. ) ;
#293 = CARTESIAN_POINT ( 'NONE',  ( 0.000000000000000000, 0.000000000000000000, 0.000000000000000000 ) ) ;
#294 = EDGE_CURVE ( 'NONE', #67, #37, #112, .T. ) ;
#295 = VECTOR ( 'NONE', #78, 1000.000000000000114 ) ;
#296 = CARTESIAN_POINT ( 'NONE',  ( -17.50000000000000000, 2.168404344971008868E-16, -8.500000000000000000 ) ) ;
#297 = CARTESIAN_POINT ( 'NONE',  ( -14.50244132795607754, 9.999999999999998224, 8.500000000000000000 ) ) ;
#298 = ADVANCED_FACE ( 'NONE', ( #333, #81 ), #195, .F. ) ;
#299 = SHAPE_DEFINITION_REPRESENTATION ( #10, #17 ) ;
#300 = CARTESIAN_POINT ( 'NONE',  ( 17.50000949367015224, -2.998001100545419866E-06, 8.500053841278930378 ) ) ;
#301 = DIRECTION ( 'NONE',  ( -0.000000000000000000, -0.000000000000000000, -1.000000000000000000 ) ) ;
#302 = DIRECTION ( 'NONE',  ( 0.000000000000000000, 0.000000000000000000, -1.000000000000000000 ) ) ;
#303 = DIRECTION ( 'NONE',  ( -9.912705577010325549E-17, 1.000000000000000000, -0.000000000000000000 ) ) ;
#304 = CARTESIAN_POINT ( 'NONE',  ( -8.000000000000000000, 2.168404344971008868E-16, 8.500000000000000000 ) ) ;
#305 = EDGE_CURVE ( 'NONE', #67, #34, #149, .T. ) ;
#306 = CARTESIAN_POINT ( 'NONE',  ( 14.50244132795608110, 10.00000000000000178, -8.500000000000000000 ) ) ;
#307 = VECTOR ( 'NONE', #157, 1000.000000000000000 ) ;
#308 = DIRECTION ( 'NONE',  ( 0.000000000000000000, -1.000000000000000000, 0.000000000000000000 ) ) ;
#309 = ORIENTED_EDGE ( 'NONE', *, *, #20, .F. ) ;
#310 = AXIS2_PLACEMENT_3D ( 'NONE', #293, #41, #317 ) ;
#311 = ORIENTED_EDGE ( 'NONE', *, *, #213, .F. ) ;
#312 = ADVANCED_FACE ( 'NONE', ( #364 ), #286, .T. ) ;
#313 = ORIENTED_EDGE ( 'NONE', *, *, #289, .F. ) ;
#314 = DIRECTION ( 'NONE',  ( -0.9535826651341416937, -0.3011313679370973273, 0.000000000000000000 ) ) ;
#315 = AXIS2_PLACEMENT_3D ( 'NONE', #192, #24, #26 ) ;
#316 = ORIENTED_EDGE ( 'NONE', *, *, #305, .F. ) ;
#317 = DIRECTION ( 'NONE',  ( 1.000000000000000000, 0.000000000000000000, 0.000000000000000000 ) ) ;
#318 = DIRECTION ( 'NONE',  ( 0.1736481776669313026, 0.000000000000000000, 0.9848077530122079093 ) ) ;
#319 = FACE_OUTER_BOUND ( 'NONE', #259, .T. ) ;
#320 = COLOUR_RGB ( '',0.7529411764705882248, 0.7529411764705882248, 0.7529411764705882248 ) ;
#321 = CARTESIAN_POINT ( 'NONE',  ( 8.000000000000000000, 2.168404344971008868E-16, -8.500000000000000000 ) ) ;
#322 = PLANE ( 'NONE',  #56 ) ;
#323 = ADVANCED_FACE ( 'NONE', ( #118 ), #284, .F. ) ;
#324 = DIRECTION ( 'NONE',  ( -1.000000000000000000, 0.000000000000000000, 0.000000000000000000 ) ) ;
#325 = VECTOR ( 'NONE', #46, 999.9999999999998863 ) ;
#326 = UNCERTAINTY_MEASURE_WITH_UNIT (LENGTH_MEASURE( 1.000000000000000082E-05 ), #185, 'distance_accuracy_value', 'NONE');
#327 = LINE ( 'NONE', #136, #156 ) ;
#328 = ADVANCED_FACE ( 'NONE', ( #144 ), #281, .F. ) ;
#329 = CARTESIAN_POINT ( 'NONE',  ( -8.000000000000000000, 3.000000000000000000, 8.500000000000000000 ) ) ;
#330 = EDGE_LOOP ( 'NONE', ( #96 ) ) ;
#331 = LINE ( 'NONE', #246, #113 ) ;
#332 = AXIS2_PLACEMENT_3D ( 'NONE', #53, #25, #302 ) ;
#333 = FACE_BOUND ( 'NONE', #262, .T. ) ;
#334 = CARTESIAN_POINT ( 'NONE',  ( -17.50000000000000000, 9.999999999999998224, -8.500000000000000000 ) ) ;
#335 = ORIENTED_EDGE ( 'NONE', *, *, #350, .F. ) ;
#336 = VECTOR ( 'NONE', #13, 1000.000000000000000 ) ;
#337 = DIRECTION ( 'NONE',  ( 0.000000000000000000, -1.000000000000000000, 0.000000000000000000 ) ) ;
#338 = ORIENTED_EDGE ( 'NONE', *, *, #180, .F. ) ;
#339 = VERTEX_POINT ( 'NONE', #282 ) ;
#340 = EDGE_LOOP ( 'NONE', ( #253, #227, #338, #309, #201, #179, #316, #29 ) ) ;
#341 = ORIENTED_EDGE ( 'NONE', *, *, #45, .T. ) ;
#342 = EDGE_CURVE ( 'NONE', #34, #339, #196, .T. ) ;
#343 =( LENGTH_UNIT ( ) NAMED_UNIT ( * ) SI_UNIT ( .MILLI., .METRE. ) );
#344 = LINE ( 'NONE', #14, #1 ) ;
#345 = PLANE ( 'NONE',  #287 ) ;
#346 =( GEOMETRIC_REPRESENTATION_CONTEXT ( 3 ) GLOBAL_UNCERTAINTY_ASSIGNED_CONTEXT ( ( #110 ) ) GLOBAL_UNIT_ASSIGNED_CONTEXT ( ( #343, #236, #263 ) ) REPRESENTATION_CONTEXT ( 'NONE', 'WORKASPACE' ) );
#347 = VECTOR ( 'NONE', #186, 1000.000000000000000 ) ;
#348 = VERTEX_POINT ( 'NONE', #306 ) ;
#349 = VECTOR ( 'NONE', #308, 1000.000000000000000 ) ;
#350 = EDGE_CURVE ( 'NONE', #8, #283, #36, .T. ) ;
#351 = LINE ( 'NONE', #159, #275 ) ;
#352 = EDGE_LOOP ( 'NONE', ( #40, #217, #335, #94 ) ) ;
#353 = MANIFOLD_SOLID_BREP ( 'Bohrung', #120 ) ;
#354 = DIRECTION ( 'NONE',  ( -0.9848077530122079093, -9.762109305567119065E-17, 0.1736481776669313026 ) ) ;
#355 = CARTESIAN_POINT ( 'NONE',  ( 8.000000000000000000, 2.168404344971008868E-16, 8.500000000000000000 ) ) ;
#356 = AXIS2_PLACEMENT_3D ( 'NONE', #121, #86, #228 ) ;
#357 = VECTOR ( 'NONE', #163, 1000.000000000000000 ) ;
#358 = EDGE_CURVE ( 'NONE', #261, #261, #258, .T. ) ;
#359 = DIRECTION ( 'NONE',  ( -0.000000000000000000, -0.000000000000000000, -1.000000000000000000 ) ) ;
#360 = CARTESIAN_POINT ( 'NONE',  ( -14.50244132795607577, -0.001000000000002734812, 8.500000000000000000 ) ) ;
#361 = CARTESIAN_POINT ( 'NONE',  ( 14.50244132795608287, -0.0009999999999992653654, -8.500000000000000000 ) ) ;
#362 = VECTOR ( 'NONE', #194, 1000.000000000000000 ) ;
#363 = LINE ( 'NONE', #304, #161 ) ;
#364 = FACE_OUTER_BOUND ( 'NONE', #242, .T. ) ;
#365 = EDGE_LOOP ( 'NONE', ( #177, #291, #126, #260 ) ) ;
#366 = CARTESIAN_POINT ( 'NONE',  ( -17.50000000000000000, 2.168404344971008868E-16, -8.500000000000000000 ) ) ;
#367 = VERTEX_POINT ( 'NONE', #30 ) ;
#368 = ADVANCED_FACE ( 'NONE', ( #3 ), #124, .F. ) ;
ENDSEC;
END-ISO-10303-21;
