ISO-10303-21;
HEADER;
FILE_DESCRIPTION (( 'STEP AP214' ),
    '1' );
FILE_NAME ('1147126.stp',
    '2022-02-10T10:41:42',
    ( '' ),
    ( '' ),
    'SwSTEP 2.0',
    'SolidWorks 2020',
    '' );
FILE_SCHEMA (( 'AUTOMOTIVE_DESIGN' ));
ENDSEC;

DATA;
#1 = DIRECTION ( 'NONE',  ( 0.1733876835661140869, 0.05475400533666761188, 0.9833304175541246472 ) ) ;
#2 = VECTOR ( 'NONE', #64, 999.9999999999998863 ) ;
#3 = DIRECTION ( 'NONE',  ( 1.000000000000000000, 0.000000000000000000, -0.000000000000000000 ) ) ;
#4 = VERTEX_POINT ( 'NONE', #206 ) ;
#5 = ORIENTED_EDGE ( 'NONE', *, *, #54, .F. ) ;
#6 = LINE ( 'NONE', #61, #105 ) ;
#7 = ORIENTED_EDGE ( 'NONE', *, *, #335, .T. ) ;
#8 = VECTOR ( 'NONE', #205, 1000.000000000000000 ) ;
#9 = DIRECTION ( 'NONE',  ( 1.000000000000000000, 0.000000000000000000, 0.000000000000000000 ) ) ;
#10 = ADVANCED_FACE ( 'NONE', ( #45, #209 ), #80, .F. ) ;
#11 = EDGE_LOOP ( 'NONE', ( #32, #104, #283, #90 ) ) ;
#12 = ORIENTED_EDGE ( 'NONE', *, *, #31, .T. ) ;
#13 =( NAMED_UNIT ( * ) PLANE_ANGLE_UNIT ( ) SI_UNIT ( $, .RADIAN. ) );
#14 = CARTESIAN_POINT ( 'NONE',  ( 0.000000000000000000, 17.00000000000000000, 5.944591164848680122E-16 ) ) ;
#15 = EDGE_CURVE ( 'NONE', #260, #122, #20, .T. ) ;
#16 = PRODUCT_DEFINITION_FORMATION_WITH_SPECIFIED_SOURCE ( 'ANY', '', #113, .NOT_KNOWN. ) ;
#17 = CARTESIAN_POINT ( 'NONE',  ( 8.000000000000000000, 2.168404344971008868E-16, -8.500000000000000000 ) ) ;
#18 =( NAMED_UNIT ( * ) SI_UNIT ( $, .STERADIAN. ) SOLID_ANGLE_UNIT ( ) );
#19 = ORIENTED_EDGE ( 'NONE', *, *, #335, .F. ) ;
#20 = LINE ( 'NONE', #131, #51 ) ;
#21 = AXIS2_PLACEMENT_3D ( 'NONE', #125, #183, #72 ) ;
#22 = FACE_OUTER_BOUND ( 'NONE', #146, .T. ) ;
#23 = CARTESIAN_POINT ( 'NONE',  ( -17.50000000000000000, 10.00000000000000000, -8.500000000000000000 ) ) ;
#24 = FACE_BOUND ( 'NONE', #337, .T. ) ;
#25 = EDGE_CURVE ( 'NONE', #39, #78, #358, .T. ) ;
#26 = VECTOR ( 'NONE', #141, 999.9999999999998863 ) ;
#27 = CARTESIAN_POINT ( 'NONE',  ( 8.000000000000000000, 2.168404344971008868E-16, 8.500000000000000000 ) ) ;
#28 = CARTESIAN_POINT ( 'NONE',  ( 8.000000000000000000, 2.168404344971008868E-16, 8.500000000000000000 ) ) ;
#29 = DIRECTION ( 'NONE',  ( 0.000000000000000000, -1.000000000000000000, 0.000000000000000000 ) ) ;
#30 = CARTESIAN_POINT ( 'NONE',  ( -14.50244132795607577, -0.001000000000002734812, 8.500000000000000000 ) ) ;
#31 = EDGE_CURVE ( 'NONE', #357, #73, #264, .T. ) ;
#32 = ORIENTED_EDGE ( 'NONE', *, *, #249, .T. ) ;
#33 = VECTOR ( 'NONE', #325, 1000.000000000000000 ) ;
#34 = LINE ( 'NONE', #306, #56 ) ;
#35 = EDGE_LOOP ( 'NONE', ( #252 ) ) ;
#36 = CARTESIAN_POINT ( 'NONE',  ( 0.000000000000000000, 0.000000000000000000, 5.944591164848680122E-16 ) ) ;
#37 = VERTEX_POINT ( 'NONE', #186 ) ;
#38 = EDGE_CURVE ( 'NONE', #94, #149, #49, .T. ) ;
#39 = VERTEX_POINT ( 'NONE', #129 ) ;
#40 = ORIENTED_EDGE ( 'NONE', *, *, #188, .T. ) ;
#41 = UNCERTAINTY_MEASURE_WITH_UNIT (LENGTH_MEASURE( 1.000000000000000082E-05 ), #265, 'distance_accuracy_value', 'NONE');
#42 = DIRECTION ( 'NONE',  ( 0.9535826651341416937, -0.3011313679370973273, 0.000000000000000000 ) ) ;
#43 = ORIENTED_EDGE ( 'NONE', *, *, #15, .F. ) ;
#44 = EDGE_CURVE ( 'NONE', #39, #266, #239, .T. ) ;
#45 = FACE_OUTER_BOUND ( 'NONE', #173, .T. ) ;
#46 = AXIS2_PLACEMENT_3D ( 'NONE', #36, #224, #314 ) ;
#47 = ORIENTED_EDGE ( 'NONE', *, *, #135, .F. ) ;
#48 = ADVANCED_BREP_SHAPE_REPRESENTATION ( '1147126', ( #345, #21 ), #82 ) ;
#49 = LINE ( 'NONE', #98, #8 ) ;
#50 = ORIENTED_EDGE ( 'NONE', *, *, #151, .T. ) ;
#51 = VECTOR ( 'NONE', #126, 1000.000000000000114 ) ;
#52 = CARTESIAN_POINT ( 'NONE',  ( -8.000000000000000000, 3.000000000000000000, 8.500000000000000000 ) ) ;
#53 = DIRECTION ( 'NONE',  ( 0.000000000000000000, 0.000000000000000000, -1.000000000000000000 ) ) ;
#54 = EDGE_CURVE ( 'NONE', #122, #96, #236, .T. ) ;
#55 = DIRECTION ( 'NONE',  ( -0.000000000000000000, -0.000000000000000000, -1.000000000000000000 ) ) ;
#56 = VECTOR ( 'NONE', #9, 1000.000000000000000 ) ;
#57 = DIRECTION ( 'NONE',  ( 0.000000000000000000, -1.000000000000000000, 0.000000000000000000 ) ) ;
#58 = FACE_OUTER_BOUND ( 'NONE', #310, .T. ) ;
#59 = PRODUCT_DEFINITION ( 'UNKNOWN', '', #16, #256 ) ;
#60 = ORIENTED_EDGE ( 'NONE', *, *, #31, .F. ) ;
#61 = CARTESIAN_POINT ( 'NONE',  ( 17.50000000000000000, 10.00000000000000000, 8.500000000000000000 ) ) ;
#62 = ORIENTED_EDGE ( 'NONE', *, *, #193, .F. ) ;
#63 = VECTOR ( 'NONE', #168, 1000.000000000000000 ) ;
#64 = DIRECTION ( 'NONE',  ( 0.9535826651341416937, 0.3011313679370973273, 0.000000000000000000 ) ) ;
#65 = APPLICATION_CONTEXT ( 'automotive_design' ) ;
#66 = EDGE_CURVE ( 'NONE', #159, #39, #160, .T. ) ;
#67 = CARTESIAN_POINT ( 'NONE',  ( 17.50000949367015224, -2.998001100545419866E-06, 8.500053841278930378 ) ) ;
#68 = CARTESIAN_POINT ( 'NONE',  ( 17.50000000000000000, 10.00000000000000000, -8.500000000000000000 ) ) ;
#69 = ORIENTED_EDGE ( 'NONE', *, *, #25, .F. ) ;
#70 = AXIS2_PLACEMENT_3D ( 'NONE', #367, #111, #53 ) ;
#71 = ADVANCED_FACE ( 'NONE', ( #187 ), #298, .F. ) ;
#72 = DIRECTION ( 'NONE',  ( 1.000000000000000000, 0.000000000000000000, 0.000000000000000000 ) ) ;
#73 = VERTEX_POINT ( 'NONE', #165 ) ;
#74 = ORIENTED_EDGE ( 'NONE', *, *, #44, .T. ) ;
#75 = EDGE_LOOP ( 'NONE', ( #318, #184, #354, #234 ) ) ;
#76 = MECHANICAL_DESIGN_GEOMETRIC_PRESENTATION_REPRESENTATION (  '', ( #226 ), #178 ) ;
#77 = DIRECTION ( 'NONE',  ( -0.9848077530122079093, -9.762109305567119065E-17, 0.1736481776669313026 ) ) ;
#78 = VERTEX_POINT ( 'NONE', #27 ) ;
#79 = EDGE_CURVE ( 'NONE', #159, #133, #277, .T. ) ;
#80 = CYLINDRICAL_SURFACE ( 'NONE', #127, 2.500000000000000000 ) ;
#81 = LINE ( 'NONE', #108, #26 ) ;
#82 =( GEOMETRIC_REPRESENTATION_CONTEXT ( 3 ) GLOBAL_UNCERTAINTY_ASSIGNED_CONTEXT ( ( #180 ) ) GLOBAL_UNIT_ASSIGNED_CONTEXT ( ( #101, #153, #18 ) ) REPRESENTATION_CONTEXT ( 'NONE', 'WORKASPACE' ) );
#83 = LINE ( 'NONE', #28, #233 ) ;
#84 = CARTESIAN_POINT ( 'NONE',  ( 8.000000000000000000, 2.168404344971008868E-16, 8.500000000000000000 ) ) ;
#85 = CARTESIAN_POINT ( 'NONE',  ( 0.000000000000000000, 0.000000000000000000, 8.500000000000000000 ) ) ;
#86 = CARTESIAN_POINT ( 'NONE',  ( -8.000000000000000000, 3.000000000000000000, 8.500000000000000000 ) ) ;
#87 = ADVANCED_FACE ( 'NONE', ( #22 ), #112, .T. ) ;
#88 = SURFACE_STYLE_USAGE ( .BOTH. , #251 ) ;
#89 = PLANE ( 'NONE',  #210 ) ;
#90 = ORIENTED_EDGE ( 'NONE', *, *, #38, .F. ) ;
#91 = LINE ( 'NONE', #284, #148 ) ;
#92 = VECTOR ( 'NONE', #42, 999.9999999999998863 ) ;
#93 = DIRECTION ( 'NONE',  ( -0.1733876835661139204, 0.05475400533666755637, -0.9833304175541246472 ) ) ;
#94 = VERTEX_POINT ( 'NONE', #196 ) ;
#95 = CARTESIAN_POINT ( 'NONE',  ( -8.000000000000000000, 3.000000000000000000, -8.500000000000000000 ) ) ;
#96 = VERTEX_POINT ( 'NONE', #191 ) ;
#97 = VERTEX_POINT ( 'NONE', #132 ) ;
#98 = CARTESIAN_POINT ( 'NONE',  ( 17.50000000000000000, 2.168404344971008868E-16, 8.500000000000000000 ) ) ;
#99 = VECTOR ( 'NONE', #93, 1000.000000000000114 ) ;
#100 = ADVANCED_FACE ( 'NONE', ( #24, #273 ), #305, .F. ) ;
#101 =( LENGTH_UNIT ( ) NAMED_UNIT ( * ) SI_UNIT ( .MILLI., .METRE. ) );
#102 = EDGE_LOOP ( 'NONE', ( #320, #103, #154, #43 ) ) ;
#103 = ORIENTED_EDGE ( 'NONE', *, *, #163, .F. ) ;
#104 = ORIENTED_EDGE ( 'NONE', *, *, #350, .T. ) ;
#105 = VECTOR ( 'NONE', #115, 1000.000000000000000 ) ;
#106 = DIRECTION ( 'NONE',  ( 0.000000000000000000, -1.000000000000000000, 0.000000000000000000 ) ) ;
#107 = DIRECTION ( 'NONE',  ( 0.000000000000000000, 1.000000000000000000, 0.000000000000000000 ) ) ;
#108 = CARTESIAN_POINT ( 'NONE',  ( 8.000000000000000000, 3.000000000000000000, -8.500000000000000000 ) ) ;
#109 = VECTOR ( 'NONE', #336, 1000.000000000000000 ) ;
#110 = DIRECTION ( 'NONE',  ( -0.9535826651341416937, 0.3011313679370973273, 0.000000000000000000 ) ) ;
#111 = DIRECTION ( 'NONE',  ( 0.000000000000000000, -1.000000000000000000, 0.000000000000000000 ) ) ;
#112 = PLANE ( 'NONE',  #138 ) ;
#113 = PRODUCT ( '1147126', '1147126', '', ( #259 ) ) ;
#114 = VECTOR ( 'NONE', #29, 1000.000000000000000 ) ;
#115 = DIRECTION ( 'NONE',  ( -1.000000000000000000, 0.000000000000000000, 0.000000000000000000 ) ) ;
#116 = FACE_OUTER_BOUND ( 'NONE', #181, .T. ) ;
#117 = LINE ( 'NONE', #346, #311 ) ;
#118 = ORIENTED_EDGE ( 'NONE', *, *, #176, .T. ) ;
#119 = CARTESIAN_POINT ( 'NONE',  ( -17.50000000000000000, 2.168404344971008868E-16, 8.500000000000000000 ) ) ;
#120 = ORIENTED_EDGE ( 'NONE', *, *, #366, .F. ) ;
#121 =( NAMED_UNIT ( * ) SI_UNIT ( $, .STERADIAN. ) SOLID_ANGLE_UNIT ( ) );
#122 = VERTEX_POINT ( 'NONE', #23 ) ;
#123 = SHAPE_DEFINITION_REPRESENTATION ( #213, #48 ) ;
#124 = EDGE_LOOP ( 'NONE', ( #12, #307, #19, #40 ) ) ;
#125 = CARTESIAN_POINT ( 'NONE',  ( 0.000000000000000000, 0.000000000000000000, 0.000000000000000000 ) ) ;
#126 = DIRECTION ( 'NONE',  ( -0.1736481776669314692, -0.000000000000000000, -0.9848077530122079093 ) ) ;
#127 = AXIS2_PLACEMENT_3D ( 'NONE', #14, #231, #158 ) ;
#128 = DIRECTION ( 'NONE',  ( -9.912705577010325549E-17, 1.000000000000000000, -0.000000000000000000 ) ) ;
#129 = CARTESIAN_POINT ( 'NONE',  ( -8.000000000000000000, 2.168404344971008868E-16, 8.500000000000000000 ) ) ;
#130 = ADVANCED_FACE ( 'NONE', ( #58 ), #140, .F. ) ;
#131 = CARTESIAN_POINT ( 'NONE',  ( -17.50000000000000000, 9.999999999999998224, -8.500000000000000000 ) ) ;
#132 = CARTESIAN_POINT ( 'NONE',  ( 0.000000000000000000, 0.000000000000000000, -2.499999999999999556 ) ) ;
#133 = VERTEX_POINT ( 'NONE', #189 ) ;
#134 = LINE ( 'NONE', #361, #204 ) ;
#135 = EDGE_CURVE ( 'NONE', #96, #133, #134, .T. ) ;
#136 = FACE_OUTER_BOUND ( 'NONE', #262, .T. ) ;
#137 = DIRECTION ( 'NONE',  ( 0.000000000000000000, -0.000000000000000000, 1.000000000000000000 ) ) ;
#138 = AXIS2_PLACEMENT_3D ( 'NONE', #85, #194, #301 ) ;
#139 = VECTOR ( 'NONE', #223, 1000.000000000000000 ) ;
#140 = PLANE ( 'NONE',  #353 ) ;
#141 = DIRECTION ( 'NONE',  ( 0.9535826651341416937, -0.3011313679370973273, 0.000000000000000000 ) ) ;
#142 = CARTESIAN_POINT ( 'NONE',  ( -17.50000000000000000, -0.001000000000002734812, -8.500000000000000000 ) ) ;
#143 = AXIS2_PLACEMENT_3D ( 'NONE', #292, #77, #237 ) ;
#144 = PRESENTATION_STYLE_ASSIGNMENT (( #88 ) ) ;
#145 = ORIENTED_EDGE ( 'NONE', *, *, #193, .T. ) ;
#146 = EDGE_LOOP ( 'NONE', ( #225, #294, #347, #253, #7, #230, #291, #281 ) ) ;
#147 = CARTESIAN_POINT ( 'NONE',  ( 8.000000000000000000, 3.000000000000000000, 8.500000000000000000 ) ) ;
#148 = VECTOR ( 'NONE', #1, 1000.000000000000227 ) ;
#149 = VERTEX_POINT ( 'NONE', #164 ) ;
#150 = APPLICATION_PROTOCOL_DEFINITION ( 'draft international standard', 'automotive_design', 1998, #338 ) ;
#151 = EDGE_CURVE ( 'NONE', #235, #235, #343, .T. ) ;
#152 = ORIENTED_EDGE ( 'NONE', *, *, #271, .F. ) ;
#153 =( NAMED_UNIT ( * ) PLANE_ANGLE_UNIT ( ) SI_UNIT ( $, .RADIAN. ) );
#154 = ORIENTED_EDGE ( 'NONE', *, *, #254, .T. ) ;
#155 = PRESENTATION_STYLE_ASSIGNMENT (( #261 ) ) ;
#156 = DIRECTION ( 'NONE',  ( 1.000000000000000000, 0.000000000000000000, 0.000000000000000000 ) ) ;
#157 = VECTOR ( 'NONE', #55, 1000.000000000000000 ) ;
#158 = DIRECTION ( 'NONE',  ( 0.000000000000000000, 0.000000000000000000, -1.000000000000000000 ) ) ;
#159 = VERTEX_POINT ( 'NONE', #52 ) ;
#160 = LINE ( 'NONE', #211, #330 ) ;
#161 = VECTOR ( 'NONE', #332, 1000.000000000000114 ) ;
#162 = PLANE ( 'NONE',  #365 ) ;
#163 = EDGE_CURVE ( 'NONE', #313, #149, #334, .T. ) ;
#164 = CARTESIAN_POINT ( 'NONE',  ( 17.50000000000000000, 10.00000000000000178, 8.500000000000000000 ) ) ;
#165 = CARTESIAN_POINT ( 'NONE',  ( 8.000000000000000000, 3.000000000000000000, -8.500000000000000000 ) ) ;
#166 = ADVANCED_FACE ( 'NONE', ( #192, #364 ), #162, .F. ) ;
#167 = CIRCLE ( 'NONE', #46, 2.500000000000000000 ) ;
#168 = DIRECTION ( 'NONE',  ( -0.000000000000000000, -0.000000000000000000, -1.000000000000000000 ) ) ;
#169 = CARTESIAN_POINT ( 'NONE',  ( -17.50000000000000000, 2.168404344971008868E-16, 8.500000000000000000 ) ) ;
#170 = CARTESIAN_POINT ( 'NONE',  ( 8.000000000000000000, 2.168404344971008868E-16, 8.500000000000000000 ) ) ;
#171 = ORIENTED_EDGE ( 'NONE', *, *, #267, .F. ) ;
#172 = AXIS2_PLACEMENT_3D ( 'NONE', #142, #198, #174 ) ;
#173 = EDGE_LOOP ( 'NONE', ( #342 ) ) ;
#174 = DIRECTION ( 'NONE',  ( -0.1736481776669314692, 0.000000000000000000, -0.9848077530122079093 ) ) ;
#175 = DIRECTION ( 'NONE',  ( -0.000000000000000000, 0.000000000000000000, -1.000000000000000000 ) ) ;
#176 = EDGE_CURVE ( 'NONE', #293, #73, #214, .T. ) ;
#177 = FILL_AREA_STYLE_COLOUR ( '', #245 ) ;
#178 =( GEOMETRIC_REPRESENTATION_CONTEXT ( 3 ) GLOBAL_UNCERTAINTY_ASSIGNED_CONTEXT ( ( #41 ) ) GLOBAL_UNIT_ASSIGNED_CONTEXT ( ( #265, #13, #203 ) ) REPRESENTATION_CONTEXT ( 'NONE', 'WORKASPACE' ) );
#179 = ORIENTED_EDGE ( 'NONE', *, *, #254, .F. ) ;
#180 = UNCERTAINTY_MEASURE_WITH_UNIT (LENGTH_MEASURE( 1.000000000000000082E-05 ), #101, 'distance_accuracy_value', 'NONE');
#181 = EDGE_LOOP ( 'NONE', ( #285, #340, #238, #349 ) ) ;
#182 = ORIENTED_EDGE ( 'NONE', *, *, #240, .F. ) ;
#183 = DIRECTION ( 'NONE',  ( 0.000000000000000000, 0.000000000000000000, 1.000000000000000000 ) ) ;
#184 = ORIENTED_EDGE ( 'NONE', *, *, #322, .T. ) ;
#185 = VECTOR ( 'NONE', #106, 1000.000000000000000 ) ;
#186 = CARTESIAN_POINT ( 'NONE',  ( 14.50244132795608465, 0.9465974753822894439, -8.500000000000000000 ) ) ;
#187 = FACE_OUTER_BOUND ( 'NONE', #124, .T. ) ;
#188 = EDGE_CURVE ( 'NONE', #78, #357, #83, .T. ) ;
#189 = CARTESIAN_POINT ( 'NONE',  ( -8.000000000000000000, 3.000000000000000000, -8.500000000000000000 ) ) ;
#190 = COLOUR_RGB ( '',0.7529411764705882248, 0.7529411764705882248, 0.7529411764705882248 ) ;
#191 = CARTESIAN_POINT ( 'NONE',  ( -17.50000000000000000, 2.168404344971008868E-16, -8.500000000000000000 ) ) ;
#192 = FACE_BOUND ( 'NONE', #316, .T. ) ;
#193 = EDGE_CURVE ( 'NONE', #73, #37, #81, .T. ) ;
#194 = DIRECTION ( 'NONE',  ( -0.000000000000000000, 0.000000000000000000, 1.000000000000000000 ) ) ;
#195 =( GEOMETRIC_REPRESENTATION_CONTEXT ( 3 ) GLOBAL_UNCERTAINTY_ASSIGNED_CONTEXT ( ( #288 ) ) GLOBAL_UNIT_ASSIGNED_CONTEXT ( ( #308, #280, #121 ) ) REPRESENTATION_CONTEXT ( 'NONE', 'WORKASPACE' ) );
#196 = CARTESIAN_POINT ( 'NONE',  ( 17.50000000000000000, 2.168404344971008868E-16, 8.500000000000000000 ) ) ;
#197 = ORIENTED_EDGE ( 'NONE', *, *, #135, .T. ) ;
#198 = DIRECTION ( 'NONE',  ( 0.9848077530122079093, 9.762109305567119065E-17, -0.1736481776669314692 ) ) ;
#199 = ORIENTED_EDGE ( 'NONE', *, *, #79, .F. ) ;
#200 = FILL_AREA_STYLE_COLOUR ( '', #190 ) ;
#201 = FILL_AREA_STYLE ('',( #200 ) ) ;
#202 = LINE ( 'NONE', #67, #99 ) ;
#203 =( NAMED_UNIT ( * ) SI_UNIT ( $, .STERADIAN. ) SOLID_ANGLE_UNIT ( ) );
#204 = VECTOR ( 'NONE', #329, 999.9999999999998863 ) ;
#205 = DIRECTION ( 'NONE',  ( 0.000000000000000000, 1.000000000000000000, 0.000000000000000000 ) ) ;
#206 = CARTESIAN_POINT ( 'NONE',  ( -14.50244132795607754, 0.9465974753822919974, 8.500000000000000000 ) ) ;
#207 = DIRECTION ( 'NONE',  ( -0.000000000000000000, -0.000000000000000000, -1.000000000000000000 ) ) ;
#208 = CARTESIAN_POINT ( 'NONE',  ( 8.000000000000000000, 3.000000000000000000, 8.500000000000000000 ) ) ;
#209 = FACE_OUTER_BOUND ( 'NONE', #35, .T. ) ;
#210 = AXIS2_PLACEMENT_3D ( 'NONE', #255, #3, #175 ) ;
#211 = CARTESIAN_POINT ( 'NONE',  ( -8.000000000000000000, 3.000000000000000000, 8.500000000000000000 ) ) ;
#212 = ADVANCED_FACE ( 'NONE', ( #136 ), #247, .F. ) ;
#213 = PRODUCT_DEFINITION_SHAPE ( 'NONE', 'NONE',  #59 ) ;
#214 = LINE ( 'NONE', #274, #63 ) ;
#215 = CARTESIAN_POINT ( 'NONE',  ( 0.000000000000000000, 0.000000000000000000, -8.500000000000000000 ) ) ;
#216 = CLOSED_SHELL ( 'NONE', ( #278, #166, #71, #212, #100, #130, #87, #217, #333, #355, #10 ) ) ;
#217 = ADVANCED_FACE ( 'NONE', ( #243 ), #368, .F. ) ;
#218 = DIRECTION ( 'NONE',  ( -0.000000000000000000, 0.000000000000000000, 1.000000000000000000 ) ) ;
#219 = CARTESIAN_POINT ( 'NONE',  ( 17.50000000000000000, 10.00000000000000178, 8.500000000000000000 ) ) ;
#220 = CARTESIAN_POINT ( 'NONE',  ( -8.000000000000000000, 2.168404344971008868E-16, 8.500000000000000000 ) ) ;
#221 = FACE_OUTER_BOUND ( 'NONE', #75, .T. ) ;
#222 = ORIENTED_EDGE ( 'NONE', *, *, #249, .F. ) ;
#223 = DIRECTION ( 'NONE',  ( -9.912705577010325549E-17, 1.000000000000000000, -0.000000000000000000 ) ) ;
#224 = DIRECTION ( 'NONE',  ( 0.000000000000000000, -1.000000000000000000, 0.000000000000000000 ) ) ;
#225 = ORIENTED_EDGE ( 'NONE', *, *, #322, .F. ) ;
#226 = STYLED_ITEM ( 'NONE', ( #155 ), #48 ) ;
#227 = LINE ( 'NONE', #30, #139 ) ;
#228 = ORIENTED_EDGE ( 'NONE', *, *, #350, .F. ) ;
#229 = LINE ( 'NONE', #119, #2 ) ;
#230 = ORIENTED_EDGE ( 'NONE', *, *, #366, .T. ) ;
#231 = DIRECTION ( 'NONE',  ( -0.000000000000000000, -1.000000000000000000, -0.000000000000000000 ) ) ;
#232 = APPLICATION_PROTOCOL_DEFINITION ( 'draft international standard', 'automotive_design', 1998, #65 ) ;
#233 = VECTOR ( 'NONE', #302, 1000.000000000000000 ) ;
#234 = ORIENTED_EDGE ( 'NONE', *, *, #54, .T. ) ;
#235 = VERTEX_POINT ( 'NONE', #268 ) ;
#236 = LINE ( 'NONE', #321, #185 ) ;
#237 = DIRECTION ( 'NONE',  ( 0.1736481776669313026, 0.000000000000000000, 0.9848077530122079093 ) ) ;
#238 = ORIENTED_EDGE ( 'NONE', *, *, #66, .F. ) ;
#239 = LINE ( 'NONE', #360, #250 ) ;
#240 = EDGE_CURVE ( 'NONE', #97, #97, #167, .T. ) ;
#241 = AXIS2_PLACEMENT_3D ( 'NONE', #244, #299, #110 ) ;
#242 = DIRECTION ( 'NONE',  ( 0.000000000000000000, -0.000000000000000000, -1.000000000000000000 ) ) ;
#243 = FACE_OUTER_BOUND ( 'NONE', #296, .T. ) ;
#244 = CARTESIAN_POINT ( 'NONE',  ( 8.000000000000000000, 3.000000000000000000, 8.500000000000000000 ) ) ;
#245 = COLOUR_RGB ( '',0.7529411764705882248, 0.7529411764705882248, 0.7529411764705882248 ) ;
#246 = DIRECTION ( 'NONE',  ( -0.3011313679370973273, 0.9535826651341416937, 0.000000000000000000 ) ) ;
#247 = PLANE ( 'NONE',  #241 ) ;
#248 = LINE ( 'NONE', #170, #109 ) ;
#249 = EDGE_CURVE ( 'NONE', #94, #37, #202, .T. ) ;
#250 = VECTOR ( 'NONE', #207, 1000.000000000000000 ) ;
#251 = SURFACE_SIDE_STYLE ('',( #257 ) ) ;
#252 = ORIENTED_EDGE ( 'NONE', *, *, #151, .F. ) ;
#253 = ORIENTED_EDGE ( 'NONE', *, *, #25, .T. ) ;
#254 = EDGE_CURVE ( 'NONE', #313, #122, #348, .T. ) ;
#255 = CARTESIAN_POINT ( 'NONE',  ( -8.000000000000000000, 3.000000000000000000, 8.500000000000000000 ) ) ;
#256 = PRODUCT_DEFINITION_CONTEXT ( 'detailed design', #65, 'design' ) ;
#257 = SURFACE_STYLE_FILL_AREA ( #201 ) ;
#258 = ORIENTED_EDGE ( 'NONE', *, *, #188, .F. ) ;
#259 = PRODUCT_CONTEXT ( 'NONE', #338, 'mechanical' ) ;
#260 = VERTEX_POINT ( 'NONE', #312 ) ;
#261 = SURFACE_STYLE_USAGE ( .BOTH. , #359 ) ;
#262 = EDGE_LOOP ( 'NONE', ( #145, #222, #120, #118 ) ) ;
#263 = PRESENTATION_LAYER_ASSIGNMENT (  '', '', ( #300 ) ) ;
#264 = LINE ( 'NONE', #17, #33 ) ;
#265 =( LENGTH_UNIT ( ) NAMED_UNIT ( * ) SI_UNIT ( .MILLI., .METRE. ) );
#266 = VERTEX_POINT ( 'NONE', #315 ) ;
#267 = EDGE_CURVE ( 'NONE', #266, #357, #34, .T. ) ;
#268 = CARTESIAN_POINT ( 'NONE',  ( 0.000000000000000000, 10.00000000000000000, -2.499999999999999556 ) ) ;
#269 = EDGE_LOOP ( 'NONE', ( #352, #258, #69, #74 ) ) ;
#270 = ORIENTED_EDGE ( 'NONE', *, *, #309, .F. ) ;
#271 = EDGE_CURVE ( 'NONE', #96, #4, #91, .T. ) ;
#272 = AXIS2_PLACEMENT_3D ( 'NONE', #275, #57, #242 ) ;
#273 = FACE_OUTER_BOUND ( 'NONE', #102, .T. ) ;
#274 = CARTESIAN_POINT ( 'NONE',  ( 8.000000000000000000, 3.000000000000000000, 8.500000000000000000 ) ) ;
#275 = CARTESIAN_POINT ( 'NONE',  ( 17.50000000000000000, 10.00000000000000000, 8.500000000000000000 ) ) ;
#276 = VECTOR ( 'NONE', #339, 1000.000000000000000 ) ;
#277 = LINE ( 'NONE', #86, #157 ) ;
#278 = ADVANCED_FACE ( 'NONE', ( #116 ), #89, .F. ) ;
#279 = PLANE ( 'NONE',  #172 ) ;
#280 =( NAMED_UNIT ( * ) PLANE_ANGLE_UNIT ( ) SI_UNIT ( $, .RADIAN. ) );
#281 = ORIENTED_EDGE ( 'NONE', *, *, #304, .T. ) ;
#282 = AXIS2_PLACEMENT_3D ( 'NONE', #215, #218, #331 ) ;
#283 = ORIENTED_EDGE ( 'NONE', *, *, #163, .T. ) ;
#284 = CARTESIAN_POINT ( 'NONE',  ( -17.50000949367015224, -2.998001100200042181E-06, -8.500053841278930378 ) ) ;
#285 = ORIENTED_EDGE ( 'NONE', *, *, #309, .T. ) ;
#286 = CARTESIAN_POINT ( 'NONE',  ( 14.50244132795608110, 10.00000000000000178, -8.500000000000000000 ) ) ;
#287 = ORIENTED_EDGE ( 'NONE', *, *, #317, .F. ) ;
#288 = UNCERTAINTY_MEASURE_WITH_UNIT (LENGTH_MEASURE( 1.000000000000000082E-05 ), #308, 'distance_accuracy_value', 'NONE');
#289 = VECTOR ( 'NONE', #156, 1000.000000000000000 ) ;
#290 = CARTESIAN_POINT ( 'NONE',  ( 8.000000000000000000, 2.168404344971008868E-16, -8.500000000000000000 ) ) ;
#291 = ORIENTED_EDGE ( 'NONE', *, *, #38, .T. ) ;
#292 = CARTESIAN_POINT ( 'NONE',  ( 17.50000000000000000, -0.0009999999999992653654, 8.500000000000000000 ) ) ;
#293 = VERTEX_POINT ( 'NONE', #147 ) ;
#294 = ORIENTED_EDGE ( 'NONE', *, *, #317, .T. ) ;
#295 = PRESENTATION_LAYER_ASSIGNMENT (  '', '', ( #226 ) ) ;
#296 = EDGE_LOOP ( 'NONE', ( #179, #228, #62, #60, #171, #270, #47, #5 ) ) ;
#297 = CARTESIAN_POINT ( 'NONE',  ( -8.000000000000000000, 2.168404344971008868E-16, 8.500000000000000000 ) ) ;
#298 = PLANE ( 'NONE',  #344 ) ;
#299 = DIRECTION ( 'NONE',  ( 0.3011313679370973273, 0.9535826651341416937, -0.000000000000000000 ) ) ;
#300 = STYLED_ITEM ( 'NONE', ( #144 ), #345 ) ;
#301 = DIRECTION ( 'NONE',  ( 1.000000000000000000, 0.000000000000000000, 0.000000000000000000 ) ) ;
#302 = DIRECTION ( 'NONE',  ( -0.000000000000000000, -0.000000000000000000, -1.000000000000000000 ) ) ;
#303 = DIRECTION ( 'NONE',  ( 0.000000000000000000, 0.000000000000000000, 1.000000000000000000 ) ) ;
#304 = EDGE_CURVE ( 'NONE', #149, #260, #6, .T. ) ;
#305 = PLANE ( 'NONE',  #272 ) ;
#306 = CARTESIAN_POINT ( 'NONE',  ( -8.000000000000000000, 2.168404344971008868E-16, -8.500000000000000000 ) ) ;
#307 = ORIENTED_EDGE ( 'NONE', *, *, #176, .F. ) ;
#308 =( LENGTH_UNIT ( ) NAMED_UNIT ( * ) SI_UNIT ( .MILLI., .METRE. ) );
#309 = EDGE_CURVE ( 'NONE', #133, #266, #341, .T. ) ;
#310 = EDGE_LOOP ( 'NONE', ( #287, #152, #197, #199 ) ) ;
#311 = VECTOR ( 'NONE', #128, 1000.000000000000000 ) ;
#312 = CARTESIAN_POINT ( 'NONE',  ( -14.50244132795607754, 9.999999999999998224, 8.500000000000000000 ) ) ;
#313 = VERTEX_POINT ( 'NONE', #286 ) ;
#314 = DIRECTION ( 'NONE',  ( 0.000000000000000000, 0.000000000000000000, -1.000000000000000000 ) ) ;
#315 = CARTESIAN_POINT ( 'NONE',  ( -8.000000000000000000, 2.168404344971008868E-16, -8.500000000000000000 ) ) ;
#316 = EDGE_LOOP ( 'NONE', ( #182 ) ) ;
#317 = EDGE_CURVE ( 'NONE', #4, #159, #229, .T. ) ;
#318 = ORIENTED_EDGE ( 'NONE', *, *, #271, .T. ) ;
#319 = PLANE ( 'NONE',  #143 ) ;
#320 = ORIENTED_EDGE ( 'NONE', *, *, #304, .F. ) ;
#321 = CARTESIAN_POINT ( 'NONE',  ( -17.50000000000000000, 10.00000000000000000, -8.500000000000000000 ) ) ;
#322 = EDGE_CURVE ( 'NONE', #4, #260, #227, .T. ) ;
#323 = FILL_AREA_STYLE ('',( #177 ) ) ;
#324 = MECHANICAL_DESIGN_GEOMETRIC_PRESENTATION_REPRESENTATION (  '', ( #300 ), #195 ) ;
#325 = DIRECTION ( 'NONE',  ( 0.000000000000000000, 1.000000000000000000, 0.000000000000000000 ) ) ;
#326 = LINE ( 'NONE', #208, #92 ) ;
#327 = DIRECTION ( 'NONE',  ( 0.000000000000000000, -1.000000000000000000, 0.000000000000000000 ) ) ;
#328 = DIRECTION ( 'NONE',  ( -1.000000000000000000, 0.000000000000000000, 0.000000000000000000 ) ) ;
#329 = DIRECTION ( 'NONE',  ( 0.9535826651341416937, 0.3011313679370973273, 0.000000000000000000 ) ) ;
#330 = VECTOR ( 'NONE', #327, 1000.000000000000000 ) ;
#331 = DIRECTION ( 'NONE',  ( 1.000000000000000000, 0.000000000000000000, 0.000000000000000000 ) ) ;
#332 = DIRECTION ( 'NONE',  ( 0.1736481776669312749, -0.000000000000000000, 0.9848077530122079093 ) ) ;
#333 = ADVANCED_FACE ( 'NONE', ( #221 ), #279, .F. ) ;
#334 = LINE ( 'NONE', #219, #161 ) ;
#335 = EDGE_CURVE ( 'NONE', #78, #293, #248, .T. ) ;
#336 = DIRECTION ( 'NONE',  ( 0.000000000000000000, 1.000000000000000000, 0.000000000000000000 ) ) ;
#337 = EDGE_LOOP ( 'NONE', ( #50 ) ) ;
#338 = APPLICATION_CONTEXT ( 'automotive_design' ) ;
#339 = DIRECTION ( 'NONE',  ( -1.000000000000000000, 0.000000000000000000, 0.000000000000000000 ) ) ;
#340 = ORIENTED_EDGE ( 'NONE', *, *, #44, .F. ) ;
#341 = LINE ( 'NONE', #95, #114 ) ;
#342 = ORIENTED_EDGE ( 'NONE', *, *, #240, .T. ) ;
#343 = CIRCLE ( 'NONE', #70, 2.500000000000000000 ) ;
#344 = AXIS2_PLACEMENT_3D ( 'NONE', #84, #328, #303 ) ;
#345 = MANIFOLD_SOLID_BREP ( 'Bohrung', #216 ) ;
#346 = CARTESIAN_POINT ( 'NONE',  ( 14.50244132795608287, -0.0009999999999992653654, -8.500000000000000000 ) ) ;
#347 = ORIENTED_EDGE ( 'NONE', *, *, #66, .T. ) ;
#348 = LINE ( 'NONE', #68, #276 ) ;
#349 = ORIENTED_EDGE ( 'NONE', *, *, #79, .T. ) ;
#350 = EDGE_CURVE ( 'NONE', #37, #313, #117, .T. ) ;
#351 = FACE_OUTER_BOUND ( 'NONE', #11, .T. ) ;
#352 = ORIENTED_EDGE ( 'NONE', *, *, #267, .T. ) ;
#353 = AXIS2_PLACEMENT_3D ( 'NONE', #169, #246, #363 ) ;
#354 = ORIENTED_EDGE ( 'NONE', *, *, #15, .T. ) ;
#355 = ADVANCED_FACE ( 'NONE', ( #351 ), #319, .F. ) ;
#356 = SURFACE_STYLE_FILL_AREA ( #323 ) ;
#357 = VERTEX_POINT ( 'NONE', #290 ) ;
#358 = LINE ( 'NONE', #297, #289 ) ;
#359 = SURFACE_SIDE_STYLE ('',( #356 ) ) ;
#360 = CARTESIAN_POINT ( 'NONE',  ( -8.000000000000000000, 2.168404344971008868E-16, 8.500000000000000000 ) ) ;
#361 = CARTESIAN_POINT ( 'NONE',  ( -17.50000000000000000, 2.168404344971008868E-16, -8.500000000000000000 ) ) ;
#362 = PRODUCT_RELATED_PRODUCT_CATEGORY ( 'part', '', ( #113 ) ) ;
#363 = DIRECTION ( 'NONE',  ( -0.9535826651341416937, -0.3011313679370973273, 0.000000000000000000 ) ) ;
#364 = FACE_OUTER_BOUND ( 'NONE', #269, .T. ) ;
#365 = AXIS2_PLACEMENT_3D ( 'NONE', #220, #107, #137 ) ;
#366 = EDGE_CURVE ( 'NONE', #293, #94, #326, .T. ) ;
#367 = CARTESIAN_POINT ( 'NONE',  ( 0.000000000000000000, 10.00000000000000000, 5.944591164848680122E-16 ) ) ;
#368 = PLANE ( 'NONE',  #282 ) ;
ENDSEC;
END-ISO-10303-21;
