ISO-10303-21;
HEADER;
FILE_DESCRIPTION (( 'STEP AP214' ),
    '1' );
FILE_NAME ('1147106.stp',
    '2019-02-08T12:25:01',
    ( '' ),
    ( '' ),
    'SwSTEP 2.0',
    'SolidWorks 2018',
    '' );
FILE_SCHEMA (( 'AUTOMOTIVE_DESIGN' ));
ENDSEC;

DATA;
#1 = ORIENTED_EDGE ( 'NONE', *, *, #186, .F. ) ;
#2 = VECTOR ( 'NONE', #5, 1000.000000000000000 ) ;
#3 = VECTOR ( 'NONE', #192, 999.9999999999998863 ) ;
#4 = CARTESIAN_POINT ( 'NONE',  ( -14.50244132795607577, -0.001000000000002734812, 8.500000000000000000 ) ) ;
#5 = DIRECTION ( 'NONE',  ( 0.0000000000000000000, 1.000000000000000000, 0.0000000000000000000 ) ) ;
#6 = DIRECTION ( 'NONE',  ( 1.000000000000000000, 0.0000000000000000000, 0.0000000000000000000 ) ) ;
#7 = EDGE_CURVE ( 'NONE', #398, #18, #337, .T. ) ;
#8 = VECTOR ( 'NONE', #195, 1000.000000000000000 ) ;
#9 = FACE_BOUND ( 'NONE', #115, .T. ) ;
#10 = ADVANCED_FACE ( 'NONE', ( #48 ), #323, .F. ) ;
#11 = DIRECTION ( 'NONE',  ( 0.0000000000000000000, 0.0000000000000000000, -1.000000000000000000 ) ) ;
#12 = DIRECTION ( 'NONE',  ( -0.1736481776669314692, -0.0000000000000000000, -0.9848077530122079093 ) ) ;
#13 =( LENGTH_UNIT ( ) NAMED_UNIT ( * ) SI_UNIT ( .MILLI., .METRE. ) );
#14 = SURFACE_SIDE_STYLE ('',( #203 ) ) ;
#15 = ADVANCED_FACE ( 'NONE', ( #204, #135 ), #130, .F. ) ;
#16 = DIRECTION ( 'NONE',  ( 0.9848077530122079093, 9.762109305567119065E-17, -0.1736481776669314692 ) ) ;
#17 = VECTOR ( 'NONE', #194, 1000.000000000000114 ) ;
#18 = VERTEX_POINT ( 'NONE', #28 ) ;
#19 =( GEOMETRIC_REPRESENTATION_CONTEXT ( 3 ) GLOBAL_UNCERTAINTY_ASSIGNED_CONTEXT ( ( #45 ) ) GLOBAL_UNIT_ASSIGNED_CONTEXT ( ( #355, #99, #357 ) ) REPRESENTATION_CONTEXT ( 'NONE', 'WORKASPACE' ) );
#20 = EDGE_LOOP ( 'NONE', ( #54, #339, #163, #262 ) ) ;
#21 = EDGE_CURVE ( 'NONE', #180, #265, #310, .T. ) ;
#22 = DIRECTION ( 'NONE',  ( -0.0000000000000000000, -1.000000000000000000, -0.0000000000000000000 ) ) ;
#23 = VECTOR ( 'NONE', #353, 999.9999999999998863 ) ;
#24 = CARTESIAN_POINT ( 'NONE',  ( -17.50000000000000000, 2.168404344971008868E-16, 8.500000000000000000 ) ) ;
#25 = DIRECTION ( 'NONE',  ( 0.0000000000000000000, 0.0000000000000000000, 1.000000000000000000 ) ) ;
#26 = PLANE ( 'NONE',  #119 ) ;
#27 = COLOUR_RGB ( '',0.7529411764705882248, 0.7529411764705882248, 0.7529411764705882248 ) ;
#28 = CARTESIAN_POINT ( 'NONE',  ( -8.000000000000000000, 2.168404344971008868E-16, -8.500000000000000000 ) ) ;
#29 = FILL_AREA_STYLE_COLOUR ( '', #374 ) ;
#30 = VECTOR ( 'NONE', #232, 1000.000000000000000 ) ;
#31 = DIRECTION ( 'NONE',  ( 0.0000000000000000000, 0.0000000000000000000, -1.000000000000000000 ) ) ;
#32 = VECTOR ( 'NONE', #263, 1000.000000000000000 ) ;
#33 = ORIENTED_EDGE ( 'NONE', *, *, #202, .T. ) ;
#34 = PRODUCT_DEFINITION_CONTEXT ( 'detailed design', #70, 'design' ) ;
#35 = DIRECTION ( 'NONE',  ( 1.000000000000000000, 0.0000000000000000000, -0.0000000000000000000 ) ) ;
#36 = APPLICATION_PROTOCOL_DEFINITION ( 'draft international standard', 'automotive_design', 1998, #70 ) ;
#37 = CARTESIAN_POINT ( 'NONE',  ( 8.000000000000000000, 2.168404344971008868E-16, 8.500000000000000000 ) ) ;
#38 = APPLICATION_PROTOCOL_DEFINITION ( 'draft international standard', 'automotive_design', 1998, #91 ) ;
#39 = PLANE ( 'NONE',  #373 ) ;
#40 = ORIENTED_EDGE ( 'NONE', *, *, #176, .T. ) ;
#41 = CARTESIAN_POINT ( 'NONE',  ( -8.000000000000000000, 3.000000000000000000, 8.500000000000000000 ) ) ;
#42 = PLANE ( 'NONE',  #241 ) ;
#43 = CARTESIAN_POINT ( 'NONE',  ( -17.50000000000000000, 2.168404344971008868E-16, -8.500000000000000000 ) ) ;
#44 = LINE ( 'NONE', #37, #59 ) ;
#45 = UNCERTAINTY_MEASURE_WITH_UNIT (LENGTH_MEASURE( 1.000000000000000082E-05 ), #355, 'distance_accuracy_value', 'NONE');
#46 = ORIENTED_EDGE ( 'NONE', *, *, #94, .T. ) ;
#47 = PRESENTATION_LAYER_ASSIGNMENT (  '', '', ( #242 ) ) ;
#48 = FACE_OUTER_BOUND ( 'NONE', #360, .T. ) ;
#49 = LINE ( 'NONE', #120, #255 ) ;
#50 = LINE ( 'NONE', #53, #23 ) ;
#51 = CARTESIAN_POINT ( 'NONE',  ( 8.000000000000000000, 3.000000000000000000, 8.500000000000000000 ) ) ;
#52 = LINE ( 'NONE', #65, #322 ) ;
#53 = CARTESIAN_POINT ( 'NONE',  ( 8.000000000000000000, 3.000000000000000000, -8.500000000000000000 ) ) ;
#54 = ORIENTED_EDGE ( 'NONE', *, *, #365, .T. ) ;
#55 = LINE ( 'NONE', #98, #223 ) ;
#56 = VECTOR ( 'NONE', #230, 1000.000000000000000 ) ;
#57 = DIRECTION ( 'NONE',  ( -1.000000000000000000, 0.0000000000000000000, 0.0000000000000000000 ) ) ;
#58 = EDGE_CURVE ( 'NONE', #369, #326, #123, .T. ) ;
#59 = VECTOR ( 'NONE', #270, 1000.000000000000000 ) ;
#60 = DIRECTION ( 'NONE',  ( 1.000000000000000000, 0.0000000000000000000, 0.0000000000000000000 ) ) ;
#61 = CARTESIAN_POINT ( 'NONE',  ( 0.0000000000000000000, 10.00000000000000000, 5.944591164848680122E-16 ) ) ;
#62 = ORIENTED_EDGE ( 'NONE', *, *, #249, .T. ) ;
#63 = CARTESIAN_POINT ( 'NONE',  ( 0.0000000000000000000, 10.00000000000000000, 5.944591164848680122E-16 ) ) ;
#64 = EDGE_CURVE ( 'NONE', #105, #369, #131, .T. ) ;
#65 = CARTESIAN_POINT ( 'NONE',  ( -17.50000949367015224, -2.998001100200042181E-06, -8.500053841278930378 ) ) ;
#66 = AXIS2_PLACEMENT_3D ( 'NONE', #276, #22, #221 ) ;
#67 = DIRECTION ( 'NONE',  ( -0.0000000000000000000, 0.0000000000000000000, 1.000000000000000000 ) ) ;
#68 = DIRECTION ( 'NONE',  ( 0.0000000000000000000, 0.0000000000000000000, -1.000000000000000000 ) ) ;
#69 = CARTESIAN_POINT ( 'NONE',  ( 0.0000000000000000000, 0.0000000000000000000, 0.0000000000000000000 ) ) ;
#70 = APPLICATION_CONTEXT ( 'automotive_design' ) ;
#71 = EDGE_CURVE ( 'NONE', #372, #247, #52, .T. ) ;
#72 = AXIS2_PLACEMENT_3D ( 'NONE', #41, #35, #95 ) ;
#73 = FILL_AREA_STYLE ('',( #198 ) ) ;
#74 = VECTOR ( 'NONE', #253, 1000.000000000000000 ) ;
#75 = VECTOR ( 'NONE', #84, 1000.000000000000114 ) ;
#76 = PRODUCT_CONTEXT ( 'NONE', #91, 'mechanical' ) ;
#77 = LINE ( 'NONE', #272, #106 ) ;
#78 = EDGE_CURVE ( 'NONE', #144, #180, #125, .T. ) ;
#79 = ORIENTED_EDGE ( 'NONE', *, *, #89, .F. ) ;
#80 = ORIENTED_EDGE ( 'NONE', *, *, #94, .F. ) ;
#81 = AXIS2_PLACEMENT_3D ( 'NONE', #378, #256, #315 ) ;
#82 =( NAMED_UNIT ( * ) SI_UNIT ( $, .STERADIAN. ) SOLID_ANGLE_UNIT ( ) );
#83 = VECTOR ( 'NONE', #406, 1000.000000000000000 ) ;
#84 = DIRECTION ( 'NONE',  ( 0.1736481776669312749, -0.0000000000000000000, 0.9848077530122079093 ) ) ;
#85 = PLANE ( 'NONE',  #394 ) ;
#86 = EDGE_LOOP ( 'NONE', ( #278, #234, #187, #388 ) ) ;
#87 = LINE ( 'NONE', #103, #30 ) ;
#88 = CARTESIAN_POINT ( 'NONE',  ( 0.0000000000000000000, 17.00000000000000000, 5.944591164848680122E-16 ) ) ;
#89 = EDGE_CURVE ( 'NONE', #326, #295, #391, .T. ) ;
#90 = VERTEX_POINT ( 'NONE', #170 ) ;
#91 = APPLICATION_CONTEXT ( 'automotive_design' ) ;
#92 = CARTESIAN_POINT ( 'NONE',  ( 8.000000000000000000, 2.168404344971008868E-16, -8.500000000000000000 ) ) ;
#93 = DIRECTION ( 'NONE',  ( -0.0000000000000000000, 0.0000000000000000000, 1.000000000000000000 ) ) ;
#94 = EDGE_CURVE ( 'NONE', #90, #215, #50, .T. ) ;
#95 = DIRECTION ( 'NONE',  ( -0.0000000000000000000, 0.0000000000000000000, -1.000000000000000000 ) ) ;
#96 = LINE ( 'NONE', #24, #302 ) ;
#97 = ADVANCED_BREP_SHAPE_REPRESENTATION ( '1147106', ( #207, #296 ), #19 ) ;
#98 = CARTESIAN_POINT ( 'NONE',  ( 17.50000000000000000, 10.00000000000000000, -8.500000000000000000 ) ) ;
#99 =( NAMED_UNIT ( * ) PLANE_ANGLE_UNIT ( ) SI_UNIT ( $, .RADIAN. ) );
#100 = CARTESIAN_POINT ( 'NONE',  ( -8.000000000000000000, 3.000000000000000000, 8.500000000000000000 ) ) ;
#101 = AXIS2_PLACEMENT_3D ( 'NONE', #148, #124, #279 ) ;
#102 = CARTESIAN_POINT ( 'NONE',  ( 0.0000000000000000000, 0.0000000000000000000, -8.500000000000000000 ) ) ;
#103 = CARTESIAN_POINT ( 'NONE',  ( -8.000000000000000000, 3.000000000000000000, 8.500000000000000000 ) ) ;
#104 = LINE ( 'NONE', #300, #3 ) ;
#105 = VERTEX_POINT ( 'NONE', #175 ) ;
#106 = VECTOR ( 'NONE', #356, 1000.000000000000000 ) ;
#107 = DIRECTION ( 'NONE',  ( -9.912705577010325549E-17, 1.000000000000000000, -0.0000000000000000000 ) ) ;
#108 = DIRECTION ( 'NONE',  ( 0.9535826651341416937, 0.3011313679370973273, 0.0000000000000000000 ) ) ;
#109 = EDGE_CURVE ( 'NONE', #273, #215, #167, .T. ) ;
#110 = VERTEX_POINT ( 'NONE', #308 ) ;
#111 = ORIENTED_EDGE ( 'NONE', *, *, #64, .T. ) ;
#112 = AXIS2_PLACEMENT_3D ( 'NONE', #88, #220, #254 ) ;
#113 = ADVANCED_FACE ( 'NONE', ( #239 ), #389, .F. ) ;
#114 = DIRECTION ( 'NONE',  ( 0.3011313679370973273, 0.9535826651341416937, -0.0000000000000000000 ) ) ;
#115 = EDGE_LOOP ( 'NONE', ( #111, #338 ) ) ;
#116 = CARTESIAN_POINT ( 'NONE',  ( -17.50000000000000000, 10.00000000000000000, -8.500000000000000000 ) ) ;
#117 = ORIENTED_EDGE ( 'NONE', *, *, #342, .T. ) ;
#118 =( NAMED_UNIT ( * ) SI_UNIT ( $, .STERADIAN. ) SOLID_ANGLE_UNIT ( ) );
#119 = AXIS2_PLACEMENT_3D ( 'NONE', #351, #312, #206 ) ;
#120 = CARTESIAN_POINT ( 'NONE',  ( 14.50244132795608287, -0.0009999999999992653654, -8.500000000000000000 ) ) ;
#121 = AXIS2_PLACEMENT_3D ( 'NONE', #257, #67, #6 ) ;
#122 = LINE ( 'NONE', #401, #32 ) ;
#123 = LINE ( 'NONE', #162, #395 ) ;
#124 = DIRECTION ( 'NONE',  ( -0.9848077530122079093, -9.762109305567119065E-17, 0.1736481776669313026 ) ) ;
#125 = LINE ( 'NONE', #349, #75 ) ;
#126 = CARTESIAN_POINT ( 'NONE',  ( -8.000000000000000000, 3.000000000000000000, 8.500000000000000000 ) ) ;
#127 = CARTESIAN_POINT ( 'NONE',  ( -14.50244132795607754, 9.999999999999998224, 8.500000000000000000 ) ) ;
#128 = DIRECTION ( 'NONE',  ( 0.0000000000000000000, 0.0000000000000000000, 1.000000000000000000 ) ) ;
#129 = LINE ( 'NONE', #4, #336 ) ;
#130 = PLANE ( 'NONE',  #371 ) ;
#131 = CIRCLE ( 'NONE', #331, 2.500000000000000000 ) ;
#132 = FACE_OUTER_BOUND ( 'NONE', #178, .T. ) ;
#133 = CARTESIAN_POINT ( 'NONE',  ( 17.50000949367015224, -2.998001100545419866E-06, 8.500053841278930378 ) ) ;
#134 = CARTESIAN_POINT ( 'NONE',  ( 17.50000000000000000, 2.168404344971008868E-16, 8.500000000000000000 ) ) ;
#135 = FACE_OUTER_BOUND ( 'NONE', #20, .T. ) ;
#136 = ADVANCED_FACE ( 'NONE', ( #320 ), #26, .F. ) ;
#137 = ORIENTED_EDGE ( 'NONE', *, *, #58, .T. ) ;
#138 = LINE ( 'NONE', #100, #303 ) ;
#139 = EDGE_CURVE ( 'NONE', #305, #372, #341, .T. ) ;
#140 = AXIS2_PLACEMENT_3D ( 'NONE', #317, #297, #236 ) ;
#141 = CIRCLE ( 'NONE', #81, 2.500000000000000000 ) ;
#142 = ORIENTED_EDGE ( 'NONE', *, *, #109, .F. ) ;
#143 = VECTOR ( 'NONE', #60, 1000.000000000000000 ) ;
#144 = VERTEX_POINT ( 'NONE', #370 ) ;
#145 = VECTOR ( 'NONE', #197, 1000.000000000000000 ) ;
#146 = SURFACE_SIDE_STYLE ('',( #172 ) ) ;
#147 = ORIENTED_EDGE ( 'NONE', *, *, #155, .F. ) ;
#148 = CARTESIAN_POINT ( 'NONE',  ( 17.50000000000000000, -0.0009999999999992653654, 8.500000000000000000 ) ) ;
#149 = PRODUCT_RELATED_PRODUCT_CATEGORY ( 'part', '', ( #268 ) ) ;
#150 = ORIENTED_EDGE ( 'NONE', *, *, #219, .T. ) ;
#151 = DIRECTION ( 'NONE',  ( 0.0000000000000000000, 1.000000000000000000, 0.0000000000000000000 ) ) ;
#152 = ORIENTED_EDGE ( 'NONE', *, *, #379, .T. ) ;
#153 = EDGE_CURVE ( 'NONE', #354, #398, #138, .T. ) ;
#154 = ORIENTED_EDGE ( 'NONE', *, *, #282, .T. ) ;
#155 = EDGE_CURVE ( 'NONE', #105, #295, #77, .T. ) ;
#156 = CARTESIAN_POINT ( 'NONE',  ( 0.0000000000000000000, 0.0000000000000000000, -2.499999999999999556 ) ) ;
#157 = LINE ( 'NONE', #284, #329 ) ;
#158 = LINE ( 'NONE', #229, #145 ) ;
#159 = VECTOR ( 'NONE', #12, 1000.000000000000114 ) ;
#160 = CARTESIAN_POINT ( 'NONE',  ( -17.50000000000000000, -0.001000000000002734812, -8.500000000000000000 ) ) ;
#161 = EDGE_LOOP ( 'NONE', ( #271, #174, #213, #264 ) ) ;
#162 = CARTESIAN_POINT ( 'NONE',  ( 3.061616997868383141E-16, 17.00000000000000000, 2.500000000000000444 ) ) ;
#163 = ORIENTED_EDGE ( 'NONE', *, *, #249, .F. ) ;
#164 = VERTEX_POINT ( 'NONE', #189 ) ;
#165 = DIRECTION ( 'NONE',  ( 0.1733876835661140869, 0.05475400533666761188, 0.9833304175541246472 ) ) ;
#166 = EDGE_CURVE ( 'NONE', #164, #273, #104, .T. ) ;
#167 = LINE ( 'NONE', #133, #17 ) ;
#168 = ORIENTED_EDGE ( 'NONE', *, *, #78, .T. ) ;
#169 = ORIENTED_EDGE ( 'NONE', *, *, #153, .T. ) ;
#170 = CARTESIAN_POINT ( 'NONE',  ( 8.000000000000000000, 3.000000000000000000, -8.500000000000000000 ) ) ;
#171 = EDGE_CURVE ( 'NONE', #354, #266, #87, .T. ) ;
#172 = SURFACE_STYLE_FILL_AREA ( #73 ) ;
#173 = EDGE_LOOP ( 'NONE', ( #184, #290, #80, #384, #208, #222, #231, #185 ) ) ;
#174 = ORIENTED_EDGE ( 'NONE', *, *, #7, .F. ) ;
#175 = CARTESIAN_POINT ( 'NONE',  ( 0.0000000000000000000, 10.00000000000000000, -2.499999999999999556 ) ) ;
#176 = EDGE_CURVE ( 'NONE', #144, #305, #55, .T. ) ;
#177 = FACE_OUTER_BOUND ( 'NONE', #293, .T. ) ;
#178 = EDGE_LOOP ( 'NONE', ( #244, #33, #169, #62, #358, #301, #117, #214 ) ) ;
#179 = FACE_OUTER_BOUND ( 'NONE', #161, .T. ) ;
#180 = VERTEX_POINT ( 'NONE', #289 ) ;
#181 = FACE_OUTER_BOUND ( 'NONE', #201, .T. ) ;
#182 = AXIS2_PLACEMENT_3D ( 'NONE', #340, #218, #11 ) ;
#183 = ORIENTED_EDGE ( 'NONE', *, *, #205, .F. ) ;
#184 = ORIENTED_EDGE ( 'NONE', *, *, #176, .F. ) ;
#185 = ORIENTED_EDGE ( 'NONE', *, *, #139, .F. ) ;
#186 = EDGE_CURVE ( 'NONE', #369, #105, #235, .T. ) ;
#187 = ORIENTED_EDGE ( 'NONE', *, *, #385, .T. ) ;
#188 = LINE ( 'NONE', #292, #159 ) ;
#189 = CARTESIAN_POINT ( 'NONE',  ( 8.000000000000000000, 3.000000000000000000, 8.500000000000000000 ) ) ;
#190 = CARTESIAN_POINT ( 'NONE',  ( -8.000000000000000000, 2.168404344971008868E-16, 8.500000000000000000 ) ) ;
#191 = ORIENTED_EDGE ( 'NONE', *, *, #219, .F. ) ;
#192 = DIRECTION ( 'NONE',  ( 0.9535826651341416937, -0.3011313679370973273, 0.0000000000000000000 ) ) ;
#193 = ORIENTED_EDGE ( 'NONE', *, *, #227, .T. ) ;
#194 = DIRECTION ( 'NONE',  ( -0.1733876835661139204, 0.05475400533666755637, -0.9833304175541246472 ) ) ;
#195 = DIRECTION ( 'NONE',  ( -1.000000000000000000, 0.0000000000000000000, 0.0000000000000000000 ) ) ;
#196 = ORIENTED_EDGE ( 'NONE', *, *, #109, .T. ) ;
#197 = DIRECTION ( 'NONE',  ( 1.000000000000000000, 0.0000000000000000000, 0.0000000000000000000 ) ) ;
#198 = FILL_AREA_STYLE_COLOUR ( '', #27 ) ;
#199 = CARTESIAN_POINT ( 'NONE',  ( -17.50000000000000000, 2.168404344971008868E-16, -8.500000000000000000 ) ) ;
#200 = DIRECTION ( 'NONE',  ( 0.0000000000000000000, -1.000000000000000000, 0.0000000000000000000 ) ) ;
#201 = EDGE_LOOP ( 'NONE', ( #258, #154, #245, #286 ) ) ;
#202 = EDGE_CURVE ( 'NONE', #247, #354, #96, .T. ) ;
#203 = SURFACE_STYLE_FILL_AREA ( #211 ) ;
#204 = FACE_BOUND ( 'NONE', #283, .T. ) ;
#205 = EDGE_CURVE ( 'NONE', #110, #164, #306, .T. ) ;
#206 = DIRECTION ( 'NONE',  ( -0.9535826651341416937, -0.3011313679370973273, 0.0000000000000000000 ) ) ;
#207 = MANIFOLD_SOLID_BREP ( 'Bohrung', #332 ) ;
#208 = ORIENTED_EDGE ( 'NONE', *, *, #365, .F. ) ;
#209 = CARTESIAN_POINT ( 'NONE',  ( -17.50000000000000000, 10.00000000000000000, -8.500000000000000000 ) ) ;
#210 = CARTESIAN_POINT ( 'NONE',  ( -8.000000000000000000, 2.168404344971008868E-16, 8.500000000000000000 ) ) ;
#211 = FILL_AREA_STYLE ('',( #29 ) ) ;
#212 = DIRECTION ( 'NONE',  ( -0.1736481776669314692, 0.0000000000000000000, -0.9848077530122079093 ) ) ;
#213 = ORIENTED_EDGE ( 'NONE', *, *, #153, .F. ) ;
#214 = ORIENTED_EDGE ( 'NONE', *, *, #21, .T. ) ;
#215 = VERTEX_POINT ( 'NONE', #397 ) ;
#216 = DIRECTION ( 'NONE',  ( -9.912705577010325549E-17, 1.000000000000000000, -0.0000000000000000000 ) ) ;
#217 = DIRECTION ( 'NONE',  ( 0.0000000000000000000, -0.0000000000000000000, 1.000000000000000000 ) ) ;
#218 = DIRECTION ( 'NONE',  ( 0.0000000000000000000, -1.000000000000000000, 0.0000000000000000000 ) ) ;
#219 = EDGE_CURVE ( 'NONE', #295, #326, #141, .T. ) ;
#220 = DIRECTION ( 'NONE',  ( -0.0000000000000000000, -1.000000000000000000, -0.0000000000000000000 ) ) ;
#221 = DIRECTION ( 'NONE',  ( 0.0000000000000000000, 0.0000000000000000000, -1.000000000000000000 ) ) ;
#222 = ORIENTED_EDGE ( 'NONE', *, *, #328, .F. ) ;
#223 = VECTOR ( 'NONE', #57, 1000.000000000000000 ) ;
#224 = CARTESIAN_POINT ( 'NONE',  ( -8.000000000000000000, 2.168404344971008868E-16, 8.500000000000000000 ) ) ;
#225 = CARTESIAN_POINT ( 'NONE',  ( 8.000000000000000000, 2.168404344971008868E-16, 8.500000000000000000 ) ) ;
#226 = DIRECTION ( 'NONE',  ( -0.0000000000000000000, -1.000000000000000000, -0.0000000000000000000 ) ) ;
#227 = EDGE_CURVE ( 'NONE', #215, #144, #49, .T. ) ;
#228 = LINE ( 'NONE', #43, #246 ) ;
#229 = CARTESIAN_POINT ( 'NONE',  ( -8.000000000000000000, 2.168404344971008868E-16, -8.500000000000000000 ) ) ;
#230 = DIRECTION ( 'NONE',  ( 0.0000000000000000000, 1.000000000000000000, 0.0000000000000000000 ) ) ;
#231 = ORIENTED_EDGE ( 'NONE', *, *, #385, .F. ) ;
#232 = DIRECTION ( 'NONE',  ( -0.0000000000000000000, -0.0000000000000000000, -1.000000000000000000 ) ) ;
#233 = PLANE ( 'NONE',  #121 ) ;
#234 = ORIENTED_EDGE ( 'NONE', *, *, #71, .F. ) ;
#235 = CIRCLE ( 'NONE', #311, 2.500000000000000000 ) ;
#236 = DIRECTION ( 'NONE',  ( 0.0000000000000000000, -0.0000000000000000000, -1.000000000000000000 ) ) ;
#237 = ADVANCED_FACE ( 'NONE', ( #304 ), #85, .F. ) ;
#238 = PLANE ( 'NONE',  #72 ) ;
#239 = FACE_OUTER_BOUND ( 'NONE', #243, .T. ) ;
#240 = ORIENTED_EDGE ( 'NONE', *, *, #89, .T. ) ;
#241 = AXIS2_PLACEMENT_3D ( 'NONE', #160, #16, #212 ) ;
#242 = STYLED_ITEM ( 'NONE', ( #347 ), #97 ) ;
#243 = EDGE_LOOP ( 'NONE', ( #1, #137, #240, #147 ) ) ;
#244 = ORIENTED_EDGE ( 'NONE', *, *, #282, .F. ) ;
#245 = ORIENTED_EDGE ( 'NONE', *, *, #386, .T. ) ;
#246 = VECTOR ( 'NONE', #108, 999.9999999999998863 ) ;
#247 = VERTEX_POINT ( 'NONE', #408 ) ;
#248 =( LENGTH_UNIT ( ) NAMED_UNIT ( * ) SI_UNIT ( .MILLI., .METRE. ) );
#249 = EDGE_CURVE ( 'NONE', #398, #110, #368, .T. ) ;
#250 = EDGE_LOOP ( 'NONE', ( #196, #193, #168, #314 ) ) ;
#251 = ADVANCED_FACE ( 'NONE', ( #9, #405 ), #327, .F. ) ;
#252 = DIRECTION ( 'NONE',  ( -0.0000000000000000000, -0.0000000000000000000, -1.000000000000000000 ) ) ;
#253 = DIRECTION ( 'NONE',  ( 0.0000000000000000000, 1.000000000000000000, 0.0000000000000000000 ) ) ;
#254 = DIRECTION ( 'NONE',  ( 0.0000000000000000000, 0.0000000000000000000, -1.000000000000000000 ) ) ;
#255 = VECTOR ( 'NONE', #107, 1000.000000000000000 ) ;
#256 = DIRECTION ( 'NONE',  ( 0.0000000000000000000, -1.000000000000000000, 0.0000000000000000000 ) ) ;
#257 = CARTESIAN_POINT ( 'NONE',  ( 0.0000000000000000000, 0.0000000000000000000, 8.500000000000000000 ) ) ;
#258 = ORIENTED_EDGE ( 'NONE', *, *, #71, .T. ) ;
#259 = DIRECTION ( 'NONE',  ( 1.000000000000000000, 0.0000000000000000000, 0.0000000000000000000 ) ) ;
#260 = EDGE_CURVE ( 'NONE', #110, #346, #44, .T. ) ;
#261 = PRESENTATION_STYLE_ASSIGNMENT (( #291 ) ) ;
#262 = ORIENTED_EDGE ( 'NONE', *, *, #7, .T. ) ;
#263 = DIRECTION ( 'NONE',  ( 0.0000000000000000000, -1.000000000000000000, 0.0000000000000000000 ) ) ;
#264 = ORIENTED_EDGE ( 'NONE', *, *, #171, .T. ) ;
#265 = VERTEX_POINT ( 'NONE', #127 ) ;
#266 = VERTEX_POINT ( 'NONE', #324 ) ;
#267 = DIRECTION ( 'NONE',  ( -0.9535826651341416937, 0.3011313679370973273, 0.0000000000000000000 ) ) ;
#268 = PRODUCT ( '1147106', '1147106', '', ( #76 ) ) ;
#269 = DIRECTION ( 'NONE',  ( 1.000000000000000000, 0.0000000000000000000, 0.0000000000000000000 ) ) ;
#270 = DIRECTION ( 'NONE',  ( -0.0000000000000000000, -0.0000000000000000000, -1.000000000000000000 ) ) ;
#271 = ORIENTED_EDGE ( 'NONE', *, *, #328, .T. ) ;
#272 = CARTESIAN_POINT ( 'NONE',  ( 0.0000000000000000000, 17.00000000000000000, -2.499999999999999556 ) ) ;
#273 = VERTEX_POINT ( 'NONE', #382 ) ;
#274 = PLANE ( 'NONE',  #101 ) ;
#275 = ORIENTED_EDGE ( 'NONE', *, *, #78, .F. ) ;
#276 = CARTESIAN_POINT ( 'NONE',  ( 0.0000000000000000000, 17.00000000000000000, 5.944591164848680122E-16 ) ) ;
#277 = AXIS2_PLACEMENT_3D ( 'NONE', #51, #114, #267 ) ;
#278 = ORIENTED_EDGE ( 'NONE', *, *, #202, .F. ) ;
#279 = DIRECTION ( 'NONE',  ( 0.1736481776669313026, 0.0000000000000000000, 0.9848077530122079093 ) ) ;
#280 = ORIENTED_EDGE ( 'NONE', *, *, #287, .T. ) ;
#281 = ADVANCED_FACE ( 'NONE', ( #179 ), #238, .F. ) ;
#282 = EDGE_CURVE ( 'NONE', #247, #265, #129, .T. ) ;
#283 = EDGE_LOOP ( 'NONE', ( #191, #79 ) ) ;
#284 = CARTESIAN_POINT ( 'NONE',  ( 8.000000000000000000, 3.000000000000000000, 8.500000000000000000 ) ) ;
#285 = LINE ( 'NONE', #134, #56 ) ;
#286 = ORIENTED_EDGE ( 'NONE', *, *, #139, .T. ) ;
#287 = EDGE_CURVE ( 'NONE', #164, #90, #157, .T. ) ;
#288 = ORIENTED_EDGE ( 'NONE', *, *, #287, .F. ) ;
#289 = CARTESIAN_POINT ( 'NONE',  ( 17.50000000000000000, 10.00000000000000178, 8.500000000000000000 ) ) ;
#290 = ORIENTED_EDGE ( 'NONE', *, *, #227, .F. ) ;
#291 = SURFACE_STYLE_USAGE ( .BOTH. , #14 ) ;
#292 = CARTESIAN_POINT ( 'NONE',  ( -17.50000000000000000, 9.999999999999998224, -8.500000000000000000 ) ) ;
#293 = EDGE_LOOP ( 'NONE', ( #152, #288, #183, #403 ) ) ;
#294 = ORIENTED_EDGE ( 'NONE', *, *, #155, .T. ) ;
#295 = VERTEX_POINT ( 'NONE', #156 ) ;
#296 = AXIS2_PLACEMENT_3D ( 'NONE', #69, #128, #269 ) ;
#297 = DIRECTION ( 'NONE',  ( 0.0000000000000000000, -1.000000000000000000, 0.0000000000000000000 ) ) ;
#298 = DIRECTION ( 'NONE',  ( 0.0000000000000000000, -1.000000000000000000, 0.0000000000000000000 ) ) ;
#299 = CARTESIAN_POINT ( 'NONE',  ( 3.061616997868383141E-16, 10.00000000000000000, 2.500000000000000444 ) ) ;
#300 = CARTESIAN_POINT ( 'NONE',  ( 8.000000000000000000, 3.000000000000000000, 8.500000000000000000 ) ) ;
#301 = ORIENTED_EDGE ( 'NONE', *, *, #166, .T. ) ;
#302 = VECTOR ( 'NONE', #348, 999.9999999999998863 ) ;
#303 = VECTOR ( 'NONE', #298, 1000.000000000000000 ) ;
#304 = FACE_OUTER_BOUND ( 'NONE', #173, .T. ) ;
#305 = VERTEX_POINT ( 'NONE', #116 ) ;
#306 = LINE ( 'NONE', #319, #74 ) ;
#307 = ADVANCED_FACE ( 'NONE', ( #343 ), #352, .F. ) ;
#308 = CARTESIAN_POINT ( 'NONE',  ( 8.000000000000000000, 2.168404344971008868E-16, 8.500000000000000000 ) ) ;
#309 = VECTOR ( 'NONE', #363, 1000.000000000000000 ) ;
#310 = LINE ( 'NONE', #400, #8 ) ;
#311 = AXIS2_PLACEMENT_3D ( 'NONE', #61, #383, #31 ) ;
#312 = DIRECTION ( 'NONE',  ( -0.3011313679370973273, 0.9535826651341416937, 0.0000000000000000000 ) ) ;
#313 = CARTESIAN_POINT ( 'NONE',  ( 3.061616997868383141E-16, 0.0000000000000000000, 2.500000000000000444 ) ) ;
#314 = ORIENTED_EDGE ( 'NONE', *, *, #342, .F. ) ;
#315 = DIRECTION ( 'NONE',  ( 0.0000000000000000000, 0.0000000000000000000, -1.000000000000000000 ) ) ;
#316 = CARTESIAN_POINT ( 'NONE',  ( -8.000000000000000000, 2.168404344971008868E-16, 8.500000000000000000 ) ) ;
#317 = CARTESIAN_POINT ( 'NONE',  ( 17.50000000000000000, 10.00000000000000000, 8.500000000000000000 ) ) ;
#318 = EDGE_LOOP ( 'NONE', ( #390, #387, #294, #150 ) ) ;
#319 = CARTESIAN_POINT ( 'NONE',  ( 8.000000000000000000, 2.168404344971008868E-16, 8.500000000000000000 ) ) ;
#320 = FACE_OUTER_BOUND ( 'NONE', #86, .T. ) ;
#321 = FACE_OUTER_BOUND ( 'NONE', #250, .T. ) ;
#322 = VECTOR ( 'NONE', #165, 1000.000000000000227 ) ;
#323 = PLANE ( 'NONE',  #277 ) ;
#324 = CARTESIAN_POINT ( 'NONE',  ( -8.000000000000000000, 3.000000000000000000, -8.500000000000000000 ) ) ;
#325 = UNCERTAINTY_MEASURE_WITH_UNIT (LENGTH_MEASURE( 1.000000000000000082E-05 ), #13, 'distance_accuracy_value', 'NONE');
#326 = VERTEX_POINT ( 'NONE', #313 ) ;
#327 = PLANE ( 'NONE',  #140 ) ;
#328 = EDGE_CURVE ( 'NONE', #266, #18, #122, .T. ) ;
#329 = VECTOR ( 'NONE', #252, 1000.000000000000000 ) ;
#330 = PRODUCT_DEFINITION_SHAPE ( 'NONE', 'NONE',  #393 ) ;
#331 = AXIS2_PLACEMENT_3D ( 'NONE', #63, #200, #68 ) ;
#332 = CLOSED_SHELL ( 'NONE', ( #113, #281, #15, #402, #10, #251, #136, #333, #237, #399, #361, #307 ) ) ;
#333 = ADVANCED_FACE ( 'NONE', ( #132 ), #233, .T. ) ;
#334 = PRESENTATION_LAYER_ASSIGNMENT (  '', '', ( #359 ) ) ;
#335 = MECHANICAL_DESIGN_GEOMETRIC_PRESENTATION_REPRESENTATION (  '', ( #359 ), #407 ) ;
#336 = VECTOR ( 'NONE', #216, 1000.000000000000000 ) ;
#337 = LINE ( 'NONE', #210, #309 ) ;
#338 = ORIENTED_EDGE ( 'NONE', *, *, #186, .T. ) ;
#339 = ORIENTED_EDGE ( 'NONE', *, *, #260, .F. ) ;
#340 = CARTESIAN_POINT ( 'NONE',  ( 0.0000000000000000000, 0.0000000000000000000, 5.944591164848680122E-16 ) ) ;
#341 = LINE ( 'NONE', #209, #83 ) ;
#342 = EDGE_CURVE ( 'NONE', #273, #180, #285, .T. ) ;
#343 = FACE_OUTER_BOUND ( 'NONE', #318, .T. ) ;
#344 =( NAMED_UNIT ( * ) PLANE_ANGLE_UNIT ( ) SI_UNIT ( $, .RADIAN. ) );
#345 = UNCERTAINTY_MEASURE_WITH_UNIT (LENGTH_MEASURE( 1.000000000000000082E-05 ), #248, 'distance_accuracy_value', 'NONE');
#346 = VERTEX_POINT ( 'NONE', #376 ) ;
#347 = PRESENTATION_STYLE_ASSIGNMENT (( #362 ) ) ;
#348 = DIRECTION ( 'NONE',  ( 0.9535826651341416937, 0.3011313679370973273, 0.0000000000000000000 ) ) ;
#349 = CARTESIAN_POINT ( 'NONE',  ( 17.50000000000000000, 10.00000000000000178, 8.500000000000000000 ) ) ;
#350 =( GEOMETRIC_REPRESENTATION_CONTEXT ( 3 ) GLOBAL_UNCERTAINTY_ASSIGNED_CONTEXT ( ( #325 ) ) GLOBAL_UNIT_ASSIGNED_CONTEXT ( ( #13, #364, #82 ) ) REPRESENTATION_CONTEXT ( 'NONE', 'WORKASPACE' ) );
#351 = CARTESIAN_POINT ( 'NONE',  ( -17.50000000000000000, 2.168404344971008868E-16, 8.500000000000000000 ) ) ;
#352 = CYLINDRICAL_SURFACE ( 'NONE', #112, 2.500000000000000000 ) ;
#353 = DIRECTION ( 'NONE',  ( 0.9535826651341416937, -0.3011313679370973273, 0.0000000000000000000 ) ) ;
#354 = VERTEX_POINT ( 'NONE', #126 ) ;
#355 =( LENGTH_UNIT ( ) NAMED_UNIT ( * ) SI_UNIT ( .MILLI., .METRE. ) );
#356 = DIRECTION ( 'NONE',  ( -0.0000000000000000000, -1.000000000000000000, -0.0000000000000000000 ) ) ;
#357 =( NAMED_UNIT ( * ) SI_UNIT ( $, .STERADIAN. ) SOLID_ANGLE_UNIT ( ) );
#358 = ORIENTED_EDGE ( 'NONE', *, *, #205, .T. ) ;
#359 = STYLED_ITEM ( 'NONE', ( #261 ), #207 ) ;
#360 = EDGE_LOOP ( 'NONE', ( #46, #142, #404, #280 ) ) ;
#361 = ADVANCED_FACE ( 'NONE', ( #321 ), #274, .F. ) ;
#362 = SURFACE_STYLE_USAGE ( .BOTH. , #146 ) ;
#363 = DIRECTION ( 'NONE',  ( -0.0000000000000000000, -0.0000000000000000000, -1.000000000000000000 ) ) ;
#364 =( NAMED_UNIT ( * ) PLANE_ANGLE_UNIT ( ) SI_UNIT ( $, .RADIAN. ) );
#365 = EDGE_CURVE ( 'NONE', #18, #346, #158, .T. ) ;
#366 = DIRECTION ( 'NONE',  ( -1.000000000000000000, 0.0000000000000000000, 0.0000000000000000000 ) ) ;
#367 = PRODUCT_DEFINITION_FORMATION_WITH_SPECIFIED_SOURCE ( 'ANY', '', #268, .NOT_KNOWN. ) ;
#368 = LINE ( 'NONE', #316, #143 ) ;
#369 = VERTEX_POINT ( 'NONE', #299 ) ;
#370 = CARTESIAN_POINT ( 'NONE',  ( 14.50244132795608110, 10.00000000000000178, -8.500000000000000000 ) ) ;
#371 = AXIS2_PLACEMENT_3D ( 'NONE', #190, #151, #217 ) ;
#372 = VERTEX_POINT ( 'NONE', #199 ) ;
#373 = AXIS2_PLACEMENT_3D ( 'NONE', #225, #366, #25 ) ;
#374 = COLOUR_RGB ( '',0.7529411764705882248, 0.7529411764705882248, 0.7529411764705882248 ) ;
#375 = EDGE_LOOP ( 'NONE', ( #392, #275, #40, #381 ) ) ;
#376 = CARTESIAN_POINT ( 'NONE',  ( 8.000000000000000000, 2.168404344971008868E-16, -8.500000000000000000 ) ) ;
#377 = MECHANICAL_DESIGN_GEOMETRIC_PRESENTATION_REPRESENTATION (  '', ( #242 ), #350 ) ;
#378 = CARTESIAN_POINT ( 'NONE',  ( 0.0000000000000000000, 0.0000000000000000000, 5.944591164848680122E-16 ) ) ;
#379 = EDGE_CURVE ( 'NONE', #346, #90, #380, .T. ) ;
#380 = LINE ( 'NONE', #92, #2 ) ;
#381 = ORIENTED_EDGE ( 'NONE', *, *, #386, .F. ) ;
#382 = CARTESIAN_POINT ( 'NONE',  ( 17.50000000000000000, 2.168404344971008868E-16, 8.500000000000000000 ) ) ;
#383 = DIRECTION ( 'NONE',  ( 0.0000000000000000000, -1.000000000000000000, 0.0000000000000000000 ) ) ;
#384 = ORIENTED_EDGE ( 'NONE', *, *, #379, .F. ) ;
#385 = EDGE_CURVE ( 'NONE', #372, #266, #228, .T. ) ;
#386 = EDGE_CURVE ( 'NONE', #265, #305, #188, .T. ) ;
#387 = ORIENTED_EDGE ( 'NONE', *, *, #64, .F. ) ;
#388 = ORIENTED_EDGE ( 'NONE', *, *, #171, .F. ) ;
#389 = CYLINDRICAL_SURFACE ( 'NONE', #66, 2.500000000000000000 ) ;
#390 = ORIENTED_EDGE ( 'NONE', *, *, #58, .F. ) ;
#391 = CIRCLE ( 'NONE', #182, 2.500000000000000000 ) ;
#392 = ORIENTED_EDGE ( 'NONE', *, *, #21, .F. ) ;
#393 = PRODUCT_DEFINITION ( 'UNKNOWN', '', #367, #34 ) ;
#394 = AXIS2_PLACEMENT_3D ( 'NONE', #102, #93, #259 ) ;
#395 = VECTOR ( 'NONE', #226, 1000.000000000000000 ) ;
#396 = SHAPE_DEFINITION_REPRESENTATION ( #330, #97 ) ;
#397 = CARTESIAN_POINT ( 'NONE',  ( 14.50244132795608465, 0.9465974753822894439, -8.500000000000000000 ) ) ;
#398 = VERTEX_POINT ( 'NONE', #224 ) ;
#399 = ADVANCED_FACE ( 'NONE', ( #181 ), #42, .F. ) ;
#400 = CARTESIAN_POINT ( 'NONE',  ( 17.50000000000000000, 10.00000000000000000, 8.500000000000000000 ) ) ;
#401 = CARTESIAN_POINT ( 'NONE',  ( -8.000000000000000000, 3.000000000000000000, -8.500000000000000000 ) ) ;
#402 = ADVANCED_FACE ( 'NONE', ( #177 ), #39, .F. ) ;
#403 = ORIENTED_EDGE ( 'NONE', *, *, #260, .T. ) ;
#404 = ORIENTED_EDGE ( 'NONE', *, *, #166, .F. ) ;
#405 = FACE_OUTER_BOUND ( 'NONE', #375, .T. ) ;
#406 = DIRECTION ( 'NONE',  ( 0.0000000000000000000, -1.000000000000000000, 0.0000000000000000000 ) ) ;
#407 =( GEOMETRIC_REPRESENTATION_CONTEXT ( 3 ) GLOBAL_UNCERTAINTY_ASSIGNED_CONTEXT ( ( #345 ) ) GLOBAL_UNIT_ASSIGNED_CONTEXT ( ( #248, #344, #118 ) ) REPRESENTATION_CONTEXT ( 'NONE', 'WORKASPACE' ) );
#408 = CARTESIAN_POINT ( 'NONE',  ( -14.50244132795607754, 0.9465974753822919974, 8.500000000000000000 ) ) ;
ENDSEC;
END-ISO-10303-21;
