ISO-10303-21;
HEADER;
FILE_DESCRIPTION (( 'STEP AP214' ),
    '1' );
FILE_NAME ('1147032.STP',
    '2017-04-07T07:00:39',
    ( '' ),
    ( '' ),
    'SwSTEP 2.0',
    'SolidWorks 2016',
    '' );
FILE_SCHEMA (( 'AUTOMOTIVE_DESIGN' ));
ENDSEC;

DATA;
#1 = APPLICATION_CONTEXT ( 'automotive_design' ) ;
#2 = VERTEX_POINT ( 'NONE', #14 ) ;
#3 = PRODUCT_DEFINITION ( 'UNKNOWN', '', #15, #249 ) ;
#4 = DIRECTION ( 'NONE',  ( -0.0000000000000000000, -0.0000000000000000000, 1.000000000000000000 ) ) ;
#5 = ORIENTED_EDGE ( 'NONE', *, *, #130, .T. ) ;
#6 = CARTESIAN_POINT ( 'NONE',  ( 8.759767544539689900, -6.500000000000000000, 4.000000000000000000 ) ) ;
#7 = PRESENTATION_LAYER_ASSIGNMENT (  '', '', ( #134 ) ) ;
#8 = PRESENTATION_LAYER_ASSIGNMENT (  '', '', ( #114 ) ) ;
#9 = EDGE_LOOP ( 'NONE', ( #112, #220, #148, #94 ) ) ;
#10 = VECTOR ( 'NONE', #66, 1000.000000000000000 ) ;
#11 = VERTEX_POINT ( 'NONE', #6 ) ;
#12 = ADVANCED_BREP_SHAPE_REPRESENTATION ( '1147032', ( #187, #75 ), #104 ) ;
#13 = CARTESIAN_POINT ( 'NONE',  ( -8.759767544539693400, 6.499999999999994700, 4.000000000000000000 ) ) ;
#14 = CARTESIAN_POINT ( 'NONE',  ( 8.759767544539689900, -6.500000000000000000, 0.0000000000000000000 ) ) ;
#15 = PRODUCT_DEFINITION_FORMATION_WITH_SPECIFIED_SOURCE ( 'ANY', '', #50, .NOT_KNOWN. ) ;
#16 = DIRECTION ( 'NONE',  ( 0.3583679495452942700, 0.9335804264972040700, 0.0000000000000000000 ) ) ;
#17 = PLANE ( 'NONE',  #261 ) ;
#18 = LINE ( 'NONE', #13, #10 ) ;
#19 = CARTESIAN_POINT ( 'NONE',  ( 8.759767544539689900, -6.500000000000000000, 4.000000000000000000 ) ) ;
#20 = DIRECTION ( 'NONE',  ( 1.000000000000000000, 0.0000000000000000000, -0.0000000000000000000 ) ) ;
#21 = DIRECTION ( 'NONE',  ( 1.000000000000000000, 2.311960982108331000E-016, 0.0000000000000000000 ) ) ;
#22 = VECTOR ( 'NONE', #16, 1000.000000000000100 ) ;
#23 = EDGE_CURVE ( 'NONE', #63, #233, #18, .T. ) ;
#24 = FACE_OUTER_BOUND ( 'NONE', #118, .T. ) ;
#25 = CARTESIAN_POINT ( 'NONE',  ( -3.399999999999999000, 4.163799117100999600E-016, 0.0000000000000000000 ) ) ;
#26 = VERTEX_POINT ( 'NONE', #154 ) ;
#27 = EDGE_CURVE ( 'NONE', #63, #166, #73, .T. ) ;
#28 = ORIENTED_EDGE ( 'NONE', *, *, #202, .T. ) ;
#29 = DIRECTION ( 'NONE',  ( -0.0000000000000000000, -0.0000000000000000000, -1.000000000000000000 ) ) ;
#30 = EDGE_LOOP ( 'NONE', ( #155, #128 ) ) ;
#31 = SHAPE_DEFINITION_REPRESENTATION ( #232, #12 ) ;
#32 = EDGE_LOOP ( 'NONE', ( #59, #196 ) ) ;
#33 = ORIENTED_EDGE ( 'NONE', *, *, #113, .T. ) ;
#34 = FILL_AREA_STYLE_COLOUR ( '', #188 ) ;
#35 = CARTESIAN_POINT ( 'NONE',  ( 3.399999999999999000, 0.0000000000000000000, 0.0000000000000000000 ) ) ;
#36 =( NAMED_UNIT ( * ) PLANE_ANGLE_UNIT ( ) SI_UNIT ( $, .RADIAN. ) );
#37 = CARTESIAN_POINT ( 'NONE',  ( 13.75000000000000000, 6.500000000000003600, 4.000000000000000000 ) ) ;
#38 = DIRECTION ( 'NONE',  ( -2.311960982108331000E-016, 1.000000000000000000, 0.0000000000000000000 ) ) ;
#39 = CARTESIAN_POINT ( 'NONE',  ( -13.75000000000000200, -6.500000000000005300, 4.000000000000000000 ) ) ;
#40 = ORIENTED_EDGE ( 'NONE', *, *, #255, .F. ) ;
#41 = CARTESIAN_POINT ( 'NONE',  ( -13.75000000000000200, -6.500000000000005300, 4.000000000000000000 ) ) ;
#42 = CARTESIAN_POINT ( 'NONE',  ( 8.759767544539689900, -6.500000000000000000, 0.0000000000000000000 ) ) ;
#43 = VERTEX_POINT ( 'NONE', #35 ) ;
#44 = DIRECTION ( 'NONE',  ( 1.000000000000000000, 0.0000000000000000000, 0.0000000000000000000 ) ) ;
#45 = FACE_OUTER_BOUND ( 'NONE', #9, .T. ) ;
#46 = ORIENTED_EDGE ( 'NONE', *, *, #191, .F. ) ;
#47 = CARTESIAN_POINT ( 'NONE',  ( -13.75000000000000200, -6.500000000000005300, 4.000000000000000000 ) ) ;
#48 = FACE_OUTER_BOUND ( 'NONE', #67, .T. ) ;
#49 = CARTESIAN_POINT ( 'NONE',  ( 0.0000000000000000000, 0.0000000000000000000, 4.000000000000000000 ) ) ;
#50 = PRODUCT ( '1147032', '1147032', '', ( #267 ) ) ;
#51 = DIRECTION ( 'NONE',  ( -0.3583679495452943300, -0.9335804264972041900, 0.0000000000000000000 ) ) ;
#52 = CARTESIAN_POINT ( 'NONE',  ( -3.399999999999999500, 4.163799117101000100E-016, 4.000000000000000000 ) ) ;
#53 = DIRECTION ( 'NONE',  ( -0.0000000000000000000, -0.0000000000000000000, 1.000000000000000000 ) ) ;
#54 = DIRECTION ( 'NONE',  ( -0.0000000000000000000, -0.0000000000000000000, -1.000000000000000000 ) ) ;
#55 = VERTEX_POINT ( 'NONE', #25 ) ;
#56 = CARTESIAN_POINT ( 'NONE',  ( 13.75000000000000000, 6.500000000000003600, 0.0000000000000000000 ) ) ;
#57 = CARTESIAN_POINT ( 'NONE',  ( -8.759767544539693400, 6.499999999999994700, 0.0000000000000000000 ) ) ;
#58 = DIRECTION ( 'NONE',  ( 1.000000000000000000, 0.0000000000000000000, 0.0000000000000000000 ) ) ;
#59 = ORIENTED_EDGE ( 'NONE', *, *, #205, .F. ) ;
#60 = DIRECTION ( 'NONE',  ( 0.0000000000000000000, 0.0000000000000000000, 1.000000000000000000 ) ) ;
#61 =( LENGTH_UNIT ( ) NAMED_UNIT ( * ) SI_UNIT ( .MILLI., .METRE. ) );
#62 = CARTESIAN_POINT ( 'NONE',  ( -13.75000000000000200, -6.500000000000005300, 4.000000000000000000 ) ) ;
#63 = VERTEX_POINT ( 'NONE', #37 ) ;
#64 = MECHANICAL_DESIGN_GEOMETRIC_PRESENTATION_REPRESENTATION (  '', ( #114 ), #246 ) ;
#65 = VECTOR ( 'NONE', #29, 1000.000000000000000 ) ;
#66 = DIRECTION ( 'NONE',  ( -1.000000000000000000, -3.853268303513885500E-016, -0.0000000000000000000 ) ) ;
#67 = EDGE_LOOP ( 'NONE', ( #180, #123, #91, #145 ) ) ;
#68 = EDGE_LOOP ( 'NONE', ( #108, #181, #219, #143 ) ) ;
#69 = MECHANICAL_DESIGN_GEOMETRIC_PRESENTATION_REPRESENTATION (  '', ( #134 ), #195 ) ;
#70 = LINE ( 'NONE', #254, #106 ) ;
#71 = FACE_BOUND ( 'NONE', #32, .T. ) ;
#72 = CARTESIAN_POINT ( 'NONE',  ( 0.0000000000000000000, 0.0000000000000000000, 4.000000000000000000 ) ) ;
#73 = LINE ( 'NONE', #83, #65 ) ;
#74 = CARTESIAN_POINT ( 'NONE',  ( -13.75000000000000200, -6.500000000000005300, 0.0000000000000000000 ) ) ;
#75 = AXIS2_PLACEMENT_3D ( 'NONE', #230, #95, #44 ) ;
#76 = DIRECTION ( 'NONE',  ( -0.0000000000000000000, -0.0000000000000000000, 1.000000000000000000 ) ) ;
#77 = DIRECTION ( 'NONE',  ( -0.0000000000000000000, -0.0000000000000000000, 1.000000000000000000 ) ) ;
#78 = DIRECTION ( 'NONE',  ( -0.0000000000000000000, -0.0000000000000000000, -1.000000000000000000 ) ) ;
#79 = CARTESIAN_POINT ( 'NONE',  ( 0.0000000000000000000, 0.0000000000000000000, 0.0000000000000000000 ) ) ;
#80 = DIRECTION ( 'NONE',  ( 1.000000000000000000, 0.0000000000000000000, 0.0000000000000000000 ) ) ;
#81 = FACE_OUTER_BOUND ( 'NONE', #212, .T. ) ;
#82 = DIRECTION ( 'NONE',  ( -0.0000000000000000000, -0.0000000000000000000, 1.000000000000000000 ) ) ;
#83 = CARTESIAN_POINT ( 'NONE',  ( 13.75000000000000000, 6.500000000000003600, 4.000000000000000000 ) ) ;
#84 = LINE ( 'NONE', #39, #273 ) ;
#85 = DIRECTION ( 'NONE',  ( -0.0000000000000000000, -0.0000000000000000000, -1.000000000000000000 ) ) ;
#86 = EDGE_CURVE ( 'NONE', #233, #109, #163, .T. ) ;
#87 = CLOSED_SHELL ( 'NONE', ( #177, #179, #174, #176, #182, #173, #170, #178 ) ) ;
#88 = DIRECTION ( 'NONE',  ( 1.000000000000000000, 0.0000000000000000000, 0.0000000000000000000 ) ) ;
#89 = AXIS2_PLACEMENT_3D ( 'NONE', #247, #204, #51 ) ;
#90 = VECTOR ( 'NONE', #85, 1000.000000000000000 ) ;
#91 = ORIENTED_EDGE ( 'NONE', *, *, #162, .F. ) ;
#92 = EDGE_CURVE ( 'NONE', #109, #11, #126, .T. ) ;
#93 = DIRECTION ( 'NONE',  ( -1.000000000000000000, -2.311960982108331000E-016, 0.0000000000000000000 ) ) ;
#94 = ORIENTED_EDGE ( 'NONE', *, *, #260, .T. ) ;
#95 = DIRECTION ( 'NONE',  ( 0.0000000000000000000, 0.0000000000000000000, 1.000000000000000000 ) ) ;
#96 = DIRECTION ( 'NONE',  ( -1.000000000000000000, -3.853268303513885500E-016, -0.0000000000000000000 ) ) ;
#97 = DIRECTION ( 'NONE',  ( 1.000000000000000000, 0.0000000000000000000, 0.0000000000000000000 ) ) ;
#98 = VECTOR ( 'NONE', #21, 1000.000000000000000 ) ;
#99 = PLANE ( 'NONE',  #105 ) ;
#100 = ORIENTED_EDGE ( 'NONE', *, *, #205, .T. ) ;
#101 = DIRECTION ( 'NONE',  ( 1.000000000000000000, 0.0000000000000000000, 0.0000000000000000000 ) ) ;
#102 = SURFACE_STYLE_FILL_AREA ( #159 ) ;
#103 = CYLINDRICAL_SURFACE ( 'NONE', #203, 3.399999999999999500 ) ;
#104 =( GEOMETRIC_REPRESENTATION_CONTEXT ( 3 ) GLOBAL_UNCERTAINTY_ASSIGNED_CONTEXT ( ( #242 ) ) GLOBAL_UNIT_ASSIGNED_CONTEXT ( ( #209, #183, #263 ) ) REPRESENTATION_CONTEXT ( 'NONE', 'WORKASPACE' ) );
#105 = AXIS2_PLACEMENT_3D ( 'NONE', #62, #38, #93 ) ;
#106 = VECTOR ( 'NONE', #76, 1000.000000000000000 ) ;
#107 = DIRECTION ( 'NONE',  ( -0.3583679495452942200, -0.9335804264972040700, -0.0000000000000000000 ) ) ;
#108 = ORIENTED_EDGE ( 'NONE', *, *, #92, .T. ) ;
#109 = VERTEX_POINT ( 'NONE', #47 ) ;
#110 = EDGE_CURVE ( 'NONE', #55, #43, #152, .T. ) ;
#111 = FACE_OUTER_BOUND ( 'NONE', #68, .T. ) ;
#112 = ORIENTED_EDGE ( 'NONE', *, *, #221, .T. ) ;
#113 = EDGE_CURVE ( 'NONE', #43, #26, #70, .T. ) ;
#114 = STYLED_ITEM ( 'NONE', ( #224 ), #187 ) ;
#115 = DIRECTION ( 'NONE',  ( 0.3583679495452942700, 0.9335804264972041900, 0.0000000000000000000 ) ) ;
#116 = EDGE_CURVE ( 'NONE', #2, #166, #253, .T. ) ;
#117 = VERTEX_POINT ( 'NONE', #171 ) ;
#118 = EDGE_LOOP ( 'NONE', ( #122, #46, #33, #100 ) ) ;
#119 = PLANE ( 'NONE',  #153 ) ;
#120 = SURFACE_STYLE_USAGE ( .BOTH. , #259 ) ;
#121 = LINE ( 'NONE', #136, #258 ) ;
#122 = ORIENTED_EDGE ( 'NONE', *, *, #130, .F. ) ;
#123 = ORIENTED_EDGE ( 'NONE', *, *, #27, .F. ) ;
#124 = VERTEX_POINT ( 'NONE', #52 ) ;
#125 = CARTESIAN_POINT ( 'NONE',  ( 8.759767544539689900, -6.500000000000000000, 4.000000000000000000 ) ) ;
#126 = LINE ( 'NONE', #248, #98 ) ;
#127 = LINE ( 'NONE', #19, #22 ) ;
#128 = ORIENTED_EDGE ( 'NONE', *, *, #110, .T. ) ;
#129 = ORIENTED_EDGE ( 'NONE', *, *, #92, .F. ) ;
#130 = EDGE_CURVE ( 'NONE', #55, #124, #199, .T. ) ;
#131 = DIRECTION ( 'NONE',  ( -0.0000000000000000000, -0.0000000000000000000, 1.000000000000000000 ) ) ;
#132 = DIRECTION ( 'NONE',  ( 0.3583679495452942700, 0.9335804264972040700, 0.0000000000000000000 ) ) ;
#133 = APPLICATION_PROTOCOL_DEFINITION ( 'draft international standard', 'automotive_design', 1998, #135 ) ;
#134 = STYLED_ITEM ( 'NONE', ( #268 ), #12 ) ;
#135 = APPLICATION_CONTEXT ( 'automotive_design' ) ;
#136 = CARTESIAN_POINT ( 'NONE',  ( -8.759767544539693400, 6.499999999999994700, 0.0000000000000000000 ) ) ;
#137 = CARTESIAN_POINT ( 'NONE',  ( -8.759767544539693400, 6.499999999999994700, 4.000000000000000000 ) ) ;
#138 = SURFACE_SIDE_STYLE ('',( #102 ) ) ;
#139 = CYLINDRICAL_SURFACE ( 'NONE', #144, 3.399999999999999500 ) ;
#140 = CARTESIAN_POINT ( 'NONE',  ( 0.0000000000000000000, 0.0000000000000000000, 4.000000000000000000 ) ) ;
#141 = LINE ( 'NONE', #125, #90 ) ;
#142 = VECTOR ( 'NONE', #132, 1000.000000000000100 ) ;
#143 = ORIENTED_EDGE ( 'NONE', *, *, #86, .T. ) ;
#144 = AXIS2_PLACEMENT_3D ( 'NONE', #244, #4, #101 ) ;
#145 = ORIENTED_EDGE ( 'NONE', *, *, #255, .T. ) ;
#146 = AXIS2_PLACEMENT_3D ( 'NONE', #274, #190, #272 ) ;
#147 = CIRCLE ( 'NONE', #172, 3.399999999999999000 ) ;
#148 = ORIENTED_EDGE ( 'NONE', *, *, #86, .F. ) ;
#149 = DIRECTION ( 'NONE',  ( -0.0000000000000000000, -0.0000000000000000000, 1.000000000000000000 ) ) ;
#150 = UNCERTAINTY_MEASURE_WITH_UNIT (LENGTH_MEASURE( 1.000000000000000100E-005 ), #61, 'distance_accuracy_value', 'NONE');
#151 = CARTESIAN_POINT ( 'NONE',  ( -8.759767544539693400, 6.499999999999994700, 4.000000000000000000 ) ) ;
#152 = CIRCLE ( 'NONE', #276, 3.399999999999999000 ) ;
#153 = AXIS2_PLACEMENT_3D ( 'NONE', #256, #265, #20 ) ;
#154 = CARTESIAN_POINT ( 'NONE',  ( 3.399999999999999500, 0.0000000000000000000, 4.000000000000000000 ) ) ;
#155 = ORIENTED_EDGE ( 'NONE', *, *, #191, .T. ) ;
#156 = ORIENTED_EDGE ( 'NONE', *, *, #113, .F. ) ;
#157 = ORIENTED_EDGE ( 'NONE', *, *, #202, .F. ) ;
#158 = AXIS2_PLACEMENT_3D ( 'NONE', #49, #60, #229 ) ;
#159 = FILL_AREA_STYLE ('',( #34 ) ) ;
#160 = VERTEX_POINT ( 'NONE', #57 ) ;
#161 = EDGE_CURVE ( 'NONE', #109, #117, #84, .T. ) ;
#162 = EDGE_CURVE ( 'NONE', #11, #63, #127, .T. ) ;
#163 = LINE ( 'NONE', #41, #235 ) ;
#164 = FACE_OUTER_BOUND ( 'NONE', #169, .T. ) ;
#165 =( NAMED_UNIT ( * ) SI_UNIT ( $, .STERADIAN. ) SOLID_ANGLE_UNIT ( ) );
#166 = VERTEX_POINT ( 'NONE', #56 ) ;
#167 = VECTOR ( 'NONE', #53, 1000.000000000000000 ) ;
#168 = ORIENTED_EDGE ( 'NONE', *, *, #116, .F. ) ;
#169 = EDGE_LOOP ( 'NONE', ( #275, #40, #129, #234 ) ) ;
#170 = ADVANCED_FACE ( 'NONE', ( #241, #194 ), #119, .F. ) ;
#171 = CARTESIAN_POINT ( 'NONE',  ( -13.75000000000000200, -6.500000000000005300, 0.0000000000000000000 ) ) ;
#172 = AXIS2_PLACEMENT_3D ( 'NONE', #250, #77, #80 ) ;
#173 = ADVANCED_FACE ( 'NONE', ( #71, #111 ), #236, .T. ) ;
#174 = ADVANCED_FACE ( 'NONE', ( #48 ), #210, .F. ) ;
#175 = CARTESIAN_POINT ( 'NONE',  ( -3.399999999999999500, 4.163799117101000100E-016, 4.000000000000000000 ) ) ;
#176 = ADVANCED_FACE ( 'NONE', ( #207 ), #189, .F. ) ;
#177 = ADVANCED_FACE ( 'NONE', ( #81 ), #103, .F. ) ;
#178 = ADVANCED_FACE ( 'NONE', ( #24 ), #139, .F. ) ;
#179 = ADVANCED_FACE ( 'NONE', ( #164 ), #99, .F. ) ;
#180 = ORIENTED_EDGE ( 'NONE', *, *, #116, .T. ) ;
#181 = ORIENTED_EDGE ( 'NONE', *, *, #162, .T. ) ;
#182 = ADVANCED_FACE ( 'NONE', ( #45 ), #17, .F. ) ;
#183 =( NAMED_UNIT ( * ) PLANE_ANGLE_UNIT ( ) SI_UNIT ( $, .RADIAN. ) );
#184 = AXIS2_PLACEMENT_3D ( 'NONE', #140, #149, #88 ) ;
#185 = EDGE_LOOP ( 'NONE', ( #270, #214, #157, #168 ) ) ;
#186 = DIRECTION ( 'NONE',  ( 0.9335804264972041900, -0.3583679495452942700, 0.0000000000000000000 ) ) ;
#187 = MANIFOLD_SOLID_BREP ( ' Gewindebohrung1', #87 ) ;
#188 = COLOUR_RGB ( '',0.7529411764705882200, 0.7529411764705882200, 0.7529411764705882200 ) ;
#189 = PLANE ( 'NONE',  #146 ) ;
#190 = DIRECTION ( 'NONE',  ( 3.853268303513885500E-016, -1.000000000000000000, 0.0000000000000000000 ) ) ;
#191 = EDGE_CURVE ( 'NONE', #43, #55, #147, .T. ) ;
#192 = ORIENTED_EDGE ( 'NONE', *, *, #208, .T. ) ;
#193 = APPLICATION_PROTOCOL_DEFINITION ( 'draft international standard', 'automotive_design', 1998, #1 ) ;
#194 = FACE_OUTER_BOUND ( 'NONE', #185, .T. ) ;
#195 =( GEOMETRIC_REPRESENTATION_CONTEXT ( 3 ) GLOBAL_UNCERTAINTY_ASSIGNED_CONTEXT ( ( #216 ) ) GLOBAL_UNIT_ASSIGNED_CONTEXT ( ( #257, #36, #231 ) ) REPRESENTATION_CONTEXT ( 'NONE', 'WORKASPACE' ) );
#196 = ORIENTED_EDGE ( 'NONE', *, *, #208, .F. ) ;
#197 = DIRECTION ( 'NONE',  ( -0.0000000000000000000, -0.0000000000000000000, 1.000000000000000000 ) ) ;
#198 = ORIENTED_EDGE ( 'NONE', *, *, #23, .F. ) ;
#199 = LINE ( 'NONE', #175, #167 ) ;
#200 = FILL_AREA_STYLE ('',( #215 ) ) ;
#201 = DIRECTION ( 'NONE',  ( 1.000000000000000000, 2.311960982108331000E-016, 0.0000000000000000000 ) ) ;
#202 = EDGE_CURVE ( 'NONE', #166, #160, #121, .T. ) ;
#203 = AXIS2_PLACEMENT_3D ( 'NONE', #243, #197, #58 ) ;
#204 = DIRECTION ( 'NONE',  ( -0.9335804264972041900, 0.3583679495452943300, 0.0000000000000000000 ) ) ;
#205 = EDGE_CURVE ( 'NONE', #26, #124, #237, .T. ) ;
#206 = DIRECTION ( 'NONE',  ( 1.000000000000000000, 0.0000000000000000000, 0.0000000000000000000 ) ) ;
#207 = FACE_OUTER_BOUND ( 'NONE', #211, .T. ) ;
#208 = EDGE_CURVE ( 'NONE', #124, #26, #245, .T. ) ;
#209 =( LENGTH_UNIT ( ) NAMED_UNIT ( * ) SI_UNIT ( .MILLI., .METRE. ) );
#210 = PLANE ( 'NONE',  #89 ) ;
#211 = EDGE_LOOP ( 'NONE', ( #28, #213, #198, #218 ) ) ;
#212 = EDGE_LOOP ( 'NONE', ( #217, #5, #192, #156 ) ) ;
#213 = ORIENTED_EDGE ( 'NONE', *, *, #260, .F. ) ;
#214 = ORIENTED_EDGE ( 'NONE', *, *, #221, .F. ) ;
#215 = FILL_AREA_STYLE_COLOUR ( '', #239 ) ;
#216 = UNCERTAINTY_MEASURE_WITH_UNIT (LENGTH_MEASURE( 1.000000000000000100E-005 ), #257, 'distance_accuracy_value', 'NONE');
#217 = ORIENTED_EDGE ( 'NONE', *, *, #110, .F. ) ;
#218 = ORIENTED_EDGE ( 'NONE', *, *, #27, .T. ) ;
#219 = ORIENTED_EDGE ( 'NONE', *, *, #23, .T. ) ;
#220 = ORIENTED_EDGE ( 'NONE', *, *, #161, .F. ) ;
#221 = EDGE_CURVE ( 'NONE', #160, #117, #227, .T. ) ;
#222 = SURFACE_STYLE_FILL_AREA ( #200 ) ;
#223 = CARTESIAN_POINT ( 'NONE',  ( -13.75000000000000200, -6.500000000000005300, 4.000000000000000000 ) ) ;
#224 = PRESENTATION_STYLE_ASSIGNMENT (( #252 ) ) ;
#225 = LINE ( 'NONE', #74, #271 ) ;
#226 =( NAMED_UNIT ( * ) PLANE_ANGLE_UNIT ( ) SI_UNIT ( $, .RADIAN. ) );
#227 = LINE ( 'NONE', #228, #266 ) ;
#228 = CARTESIAN_POINT ( 'NONE',  ( -13.75000000000000200, -6.500000000000005300, 0.0000000000000000000 ) ) ;
#229 = DIRECTION ( 'NONE',  ( 1.000000000000000000, 0.0000000000000000000, -0.0000000000000000000 ) ) ;
#230 = CARTESIAN_POINT ( 'NONE',  ( 0.0000000000000000000, 0.0000000000000000000, 0.0000000000000000000 ) ) ;
#231 =( NAMED_UNIT ( * ) SI_UNIT ( $, .STERADIAN. ) SOLID_ANGLE_UNIT ( ) );
#232 = PRODUCT_DEFINITION_SHAPE ( 'NONE', 'NONE',  #3 ) ;
#233 = VERTEX_POINT ( 'NONE', #137 ) ;
#234 = ORIENTED_EDGE ( 'NONE', *, *, #161, .T. ) ;
#235 = VECTOR ( 'NONE', #269, 1000.000000000000100 ) ;
#236 = PLANE ( 'NONE',  #158 ) ;
#237 = CIRCLE ( 'NONE', #240, 3.399999999999999500 ) ;
#238 = EDGE_CURVE ( 'NONE', #117, #2, #225, .T. ) ;
#239 = COLOUR_RGB ( '',0.7529411764705882200, 0.7529411764705882200, 0.7529411764705882200 ) ;
#240 = AXIS2_PLACEMENT_3D ( 'NONE', #72, #131, #206 ) ;
#241 = FACE_BOUND ( 'NONE', #30, .T. ) ;
#242 = UNCERTAINTY_MEASURE_WITH_UNIT (LENGTH_MEASURE( 1.000000000000000100E-005 ), #209, 'distance_accuracy_value', 'NONE');
#243 = CARTESIAN_POINT ( 'NONE',  ( 0.0000000000000000000, 0.0000000000000000000, 4.000000000000000000 ) ) ;
#244 = CARTESIAN_POINT ( 'NONE',  ( 0.0000000000000000000, 0.0000000000000000000, 4.000000000000000000 ) ) ;
#245 = CIRCLE ( 'NONE', #184, 3.399999999999999500 ) ;
#246 =( GEOMETRIC_REPRESENTATION_CONTEXT ( 3 ) GLOBAL_UNCERTAINTY_ASSIGNED_CONTEXT ( ( #150 ) ) GLOBAL_UNIT_ASSIGNED_CONTEXT ( ( #61, #226, #165 ) ) REPRESENTATION_CONTEXT ( 'NONE', 'WORKASPACE' ) );
#247 = CARTESIAN_POINT ( 'NONE',  ( 8.759767544539689900, -6.500000000000000000, 4.000000000000000000 ) ) ;
#248 = CARTESIAN_POINT ( 'NONE',  ( -13.75000000000000200, -6.500000000000005300, 4.000000000000000000 ) ) ;
#249 = PRODUCT_DEFINITION_CONTEXT ( 'detailed design', #135, 'design' ) ;
#250 = CARTESIAN_POINT ( 'NONE',  ( 0.0000000000000000000, 0.0000000000000000000, 0.0000000000000000000 ) ) ;
#251 = VECTOR ( 'NONE', #54, 1000.000000000000000 ) ;
#252 = SURFACE_STYLE_USAGE ( .BOTH. , #138 ) ;
#253 = LINE ( 'NONE', #42, #142 ) ;
#254 = CARTESIAN_POINT ( 'NONE',  ( 3.399999999999999500, 0.0000000000000000000, 4.000000000000000000 ) ) ;
#255 = EDGE_CURVE ( 'NONE', #11, #2, #141, .T. ) ;
#256 = CARTESIAN_POINT ( 'NONE',  ( 0.0000000000000000000, 0.0000000000000000000, 0.0000000000000000000 ) ) ;
#257 =( LENGTH_UNIT ( ) NAMED_UNIT ( * ) SI_UNIT ( .MILLI., .METRE. ) );
#258 = VECTOR ( 'NONE', #96, 1000.000000000000000 ) ;
#259 = SURFACE_SIDE_STYLE ('',( #222 ) ) ;
#260 = EDGE_CURVE ( 'NONE', #233, #160, #262, .T. ) ;
#261 = AXIS2_PLACEMENT_3D ( 'NONE', #223, #186, #115 ) ;
#262 = LINE ( 'NONE', #151, #251 ) ;
#263 =( NAMED_UNIT ( * ) SI_UNIT ( $, .STERADIAN. ) SOLID_ANGLE_UNIT ( ) );
#264 = PRODUCT_RELATED_PRODUCT_CATEGORY ( 'part', '', ( #50 ) ) ;
#265 = DIRECTION ( 'NONE',  ( 0.0000000000000000000, 0.0000000000000000000, 1.000000000000000000 ) ) ;
#266 = VECTOR ( 'NONE', #107, 1000.000000000000100 ) ;
#267 = PRODUCT_CONTEXT ( 'NONE', #1, 'mechanical' ) ;
#268 = PRESENTATION_STYLE_ASSIGNMENT (( #120 ) ) ;
#269 = DIRECTION ( 'NONE',  ( -0.3583679495452942200, -0.9335804264972040700, -0.0000000000000000000 ) ) ;
#270 = ORIENTED_EDGE ( 'NONE', *, *, #238, .F. ) ;
#271 = VECTOR ( 'NONE', #201, 1000.000000000000000 ) ;
#272 = DIRECTION ( 'NONE',  ( 1.000000000000000000, 3.853268303513885500E-016, 0.0000000000000000000 ) ) ;
#273 = VECTOR ( 'NONE', #78, 1000.000000000000000 ) ;
#274 = CARTESIAN_POINT ( 'NONE',  ( -8.759767544539693400, 6.499999999999994700, 4.000000000000000000 ) ) ;
#275 = ORIENTED_EDGE ( 'NONE', *, *, #238, .T. ) ;
#276 = AXIS2_PLACEMENT_3D ( 'NONE', #79, #82, #97 ) ;
ENDSEC;
END-ISO-10303-21;
