ISO-10303-21;
HEADER;
FILE_DESCRIPTION (( 'STEP AP214' ),
    '1' );
FILE_NAME ('1147024.STP',
    '2017-04-07T06:55:39',
    ( '' ),
    ( '' ),
    'SwSTEP 2.0',
    'SolidWorks 2016',
    '' );
FILE_SCHEMA (( 'AUTOMOTIVE_DESIGN' ));
ENDSEC;

DATA;
#1 = EDGE_LOOP ( 'NONE', ( #216, #272, #152, #230 ) ) ;
#2 = EDGE_CURVE ( 'NONE', #96, #118, #110, .T. ) ;
#3 = EDGE_LOOP ( 'NONE', ( #56, #48, #38, #246 ) ) ;
#4 = DIRECTION ( 'NONE',  ( 0.0000000000000000000, 0.0000000000000000000, 1.000000000000000000 ) ) ;
#5 = EDGE_CURVE ( 'NONE', #114, #96, #60, .T. ) ;
#6 = VERTEX_POINT ( 'NONE', #32 ) ;
#7 = DIRECTION ( 'NONE',  ( -0.0000000000000000000, -0.0000000000000000000, 1.000000000000000000 ) ) ;
#8 = AXIS2_PLACEMENT_3D ( 'NONE', #148, #4, #139 ) ;
#9 = PRESENTATION_STYLE_ASSIGNMENT (( #140 ) ) ;
#10 = EDGE_CURVE ( 'NONE', #177, #11, #172, .T. ) ;
#11 = VERTEX_POINT ( 'NONE', #273 ) ;
#12 = LINE ( 'NONE', #85, #136 ) ;
#13 = SURFACE_STYLE_FILL_AREA ( #253 ) ;
#14 = ORIENTED_EDGE ( 'NONE', *, *, #229, .T. ) ;
#15 = AXIS2_PLACEMENT_3D ( 'NONE', #219, #129, #69 ) ;
#16 =( LENGTH_UNIT ( ) NAMED_UNIT ( * ) SI_UNIT ( .MILLI., .METRE. ) );
#17 =( LENGTH_UNIT ( ) NAMED_UNIT ( * ) SI_UNIT ( .MILLI., .METRE. ) );
#18 =( GEOMETRIC_REPRESENTATION_CONTEXT ( 3 ) GLOBAL_UNCERTAINTY_ASSIGNED_CONTEXT ( ( #55 ) ) GLOBAL_UNIT_ASSIGNED_CONTEXT ( ( #17, #130, #68 ) ) REPRESENTATION_CONTEXT ( 'NONE', 'WORKASPACE' ) );
#19 =( NAMED_UNIT ( * ) PLANE_ANGLE_UNIT ( ) SI_UNIT ( $, .RADIAN. ) );
#20 = DIRECTION ( 'NONE',  ( 1.000000000000000000, 0.0000000000000000000, 0.0000000000000000000 ) ) ;
#21 =( NAMED_UNIT ( * ) SI_UNIT ( $, .STERADIAN. ) SOLID_ANGLE_UNIT ( ) );
#22 = CARTESIAN_POINT ( 'NONE',  ( -13.75000000000000200, -6.500000000000005300, 0.0000000000000000000 ) ) ;
#23 = APPLICATION_CONTEXT ( 'automotive_design' ) ;
#24 = DIRECTION ( 'NONE',  ( 1.000000000000000000, 0.0000000000000000000, 0.0000000000000000000 ) ) ;
#25 = CARTESIAN_POINT ( 'NONE',  ( -13.75000000000000200, -6.500000000000005300, 0.0000000000000000000 ) ) ;
#26 = SURFACE_SIDE_STYLE ('',( #254 ) ) ;
#27 = DIRECTION ( 'NONE',  ( 0.9335804264972041900, -0.3583679495452942700, 0.0000000000000000000 ) ) ;
#28 = AXIS2_PLACEMENT_3D ( 'NONE', #92, #98, #95 ) ;
#29 = DIRECTION ( 'NONE',  ( -1.000000000000000000, -3.853268303513885500E-016, -0.0000000000000000000 ) ) ;
#30 =( LENGTH_UNIT ( ) NAMED_UNIT ( * ) SI_UNIT ( .MILLI., .METRE. ) );
#31 = PRODUCT_DEFINITION ( 'UNKNOWN', '', #100, #112 ) ;
#32 = CARTESIAN_POINT ( 'NONE',  ( -8.759767544539693400, 6.499999999999994700, 0.0000000000000000000 ) ) ;
#33 = ORIENTED_EDGE ( 'NONE', *, *, #5, .T. ) ;
#34 = DIRECTION ( 'NONE',  ( 0.3583679495452942700, 0.9335804264972040700, 0.0000000000000000000 ) ) ;
#35 = PRODUCT_CONTEXT ( 'NONE', #70, 'mechanical' ) ;
#36 = CARTESIAN_POINT ( 'NONE',  ( -8.759767544539693400, 6.499999999999994700, 0.0000000000000000000 ) ) ;
#37 = SURFACE_STYLE_USAGE ( .BOTH. , #26 ) ;
#38 = ORIENTED_EDGE ( 'NONE', *, *, #156, .F. ) ;
#39 = PRODUCT ( '1147024', '1147024', '', ( #35 ) ) ;
#40 = CARTESIAN_POINT ( 'NONE',  ( 0.0000000000000000000, 0.0000000000000000000, 4.000000000000000000 ) ) ;
#41 = ORIENTED_EDGE ( 'NONE', *, *, #128, .F. ) ;
#42 = DIRECTION ( 'NONE',  ( -0.0000000000000000000, -0.0000000000000000000, -1.000000000000000000 ) ) ;
#43 = DIRECTION ( 'NONE',  ( -0.0000000000000000000, -0.0000000000000000000, 1.000000000000000000 ) ) ;
#44 = EDGE_CURVE ( 'NONE', #251, #114, #12, .T. ) ;
#45 = DIRECTION ( 'NONE',  ( 1.000000000000000000, 0.0000000000000000000, 0.0000000000000000000 ) ) ;
#46 = CARTESIAN_POINT ( 'NONE',  ( -2.100000000000000100, 2.571758278209442000E-016, 4.000000000000000000 ) ) ;
#47 = CARTESIAN_POINT ( 'NONE',  ( 8.759767544539689900, -6.500000000000000000, 0.0000000000000000000 ) ) ;
#48 = ORIENTED_EDGE ( 'NONE', *, *, #145, .F. ) ;
#49 = CARTESIAN_POINT ( 'NONE',  ( -13.75000000000000200, -6.500000000000005300, 4.000000000000000000 ) ) ;
#50 = DIRECTION ( 'NONE',  ( -1.000000000000000000, -3.853268303513885500E-016, -0.0000000000000000000 ) ) ;
#51 = DIRECTION ( 'NONE',  ( -0.0000000000000000000, -0.0000000000000000000, -1.000000000000000000 ) ) ;
#52 = CARTESIAN_POINT ( 'NONE',  ( 13.75000000000000000, 6.500000000000003600, 0.0000000000000000000 ) ) ;
#53 = DIRECTION ( 'NONE',  ( 0.0000000000000000000, 0.0000000000000000000, 1.000000000000000000 ) ) ;
#54 = SURFACE_SIDE_STYLE ('',( #13 ) ) ;
#55 = UNCERTAINTY_MEASURE_WITH_UNIT (LENGTH_MEASURE( 1.000000000000000100E-005 ), #17, 'distance_accuracy_value', 'NONE');
#56 = ORIENTED_EDGE ( 'NONE', *, *, #153, .T. ) ;
#57 = APPLICATION_PROTOCOL_DEFINITION ( 'draft international standard', 'automotive_design', 1998, #70 ) ;
#58 = VERTEX_POINT ( 'NONE', #66 ) ;
#59 = CARTESIAN_POINT ( 'NONE',  ( 8.759767544539689900, -6.500000000000000000, 4.000000000000000000 ) ) ;
#60 = LINE ( 'NONE', #135, #78 ) ;
#61 = ORIENTED_EDGE ( 'NONE', *, *, #44, .F. ) ;
#62 = DIRECTION ( 'NONE',  ( -0.0000000000000000000, -0.0000000000000000000, 1.000000000000000000 ) ) ;
#63 = ORIENTED_EDGE ( 'NONE', *, *, #2, .F. ) ;
#64 = DIRECTION ( 'NONE',  ( 1.000000000000000000, 0.0000000000000000000, -0.0000000000000000000 ) ) ;
#65 = MANIFOLD_SOLID_BREP ( ' Gewindebohrung1', #67 ) ;
#66 = CARTESIAN_POINT ( 'NONE',  ( -2.100000000000000100, 2.571758278209441500E-016, 0.0000000000000000000 ) ) ;
#67 = CLOSED_SHELL ( 'NONE', ( #238, #241, #240, #233, #235, #234, #242, #236 ) ) ;
#68 =( NAMED_UNIT ( * ) SI_UNIT ( $, .STERADIAN. ) SOLID_ANGLE_UNIT ( ) );
#69 = DIRECTION ( 'NONE',  ( 1.000000000000000000, 0.0000000000000000000, 0.0000000000000000000 ) ) ;
#70 = APPLICATION_CONTEXT ( 'automotive_design' ) ;
#71 = DIRECTION ( 'NONE',  ( -0.0000000000000000000, -0.0000000000000000000, -1.000000000000000000 ) ) ;
#72 = CARTESIAN_POINT ( 'NONE',  ( 0.0000000000000000000, 0.0000000000000000000, 4.000000000000000000 ) ) ;
#73 = ORIENTED_EDGE ( 'NONE', *, *, #149, .F. ) ;
#74 = VERTEX_POINT ( 'NONE', #59 ) ;
#75 = VECTOR ( 'NONE', #29, 1000.000000000000000 ) ;
#76 = ORIENTED_EDGE ( 'NONE', *, *, #183, .F. ) ;
#77 = ORIENTED_EDGE ( 'NONE', *, *, #145, .T. ) ;
#78 = VECTOR ( 'NONE', #84, 1000.000000000000100 ) ;
#79 = AXIS2_PLACEMENT_3D ( 'NONE', #86, #62, #24 ) ;
#80 = PRODUCT_RELATED_PRODUCT_CATEGORY ( 'part', '', ( #39 ) ) ;
#81 = ORIENTED_EDGE ( 'NONE', *, *, #149, .T. ) ;
#82 = CARTESIAN_POINT ( 'NONE',  ( -13.75000000000000200, -6.500000000000005300, 0.0000000000000000000 ) ) ;
#83 = CARTESIAN_POINT ( 'NONE',  ( 2.100000000000000100, 0.0000000000000000000, 0.0000000000000000000 ) ) ;
#84 = DIRECTION ( 'NONE',  ( -0.3583679495452942200, -0.9335804264972040700, -0.0000000000000000000 ) ) ;
#85 = CARTESIAN_POINT ( 'NONE',  ( -8.759767544539693400, 6.499999999999994700, 4.000000000000000000 ) ) ;
#86 = CARTESIAN_POINT ( 'NONE',  ( 0.0000000000000000000, 0.0000000000000000000, 4.000000000000000000 ) ) ;
#87 = DIRECTION ( 'NONE',  ( 0.3583679495452942700, 0.9335804264972040700, 0.0000000000000000000 ) ) ;
#88 = DIRECTION ( 'NONE',  ( -0.9335804264972041900, 0.3583679495452943300, 0.0000000000000000000 ) ) ;
#89 = CARTESIAN_POINT ( 'NONE',  ( -13.75000000000000200, -6.500000000000005300, 4.000000000000000000 ) ) ;
#90 = CARTESIAN_POINT ( 'NONE',  ( -8.759767544539693400, 6.499999999999994700, 4.000000000000000000 ) ) ;
#91 = LINE ( 'NONE', #46, #201 ) ;
#92 = CARTESIAN_POINT ( 'NONE',  ( 0.0000000000000000000, 0.0000000000000000000, 0.0000000000000000000 ) ) ;
#93 = ORIENTED_EDGE ( 'NONE', *, *, #116, .F. ) ;
#94 =( GEOMETRIC_REPRESENTATION_CONTEXT ( 3 ) GLOBAL_UNCERTAINTY_ASSIGNED_CONTEXT ( ( #155 ) ) GLOBAL_UNIT_ASSIGNED_CONTEXT ( ( #16, #19, #21 ) ) REPRESENTATION_CONTEXT ( 'NONE', 'WORKASPACE' ) );
#95 = DIRECTION ( 'NONE',  ( 1.000000000000000000, 0.0000000000000000000, 0.0000000000000000000 ) ) ;
#96 = VERTEX_POINT ( 'NONE', #49 ) ;
#97 = EDGE_CURVE ( 'NONE', #154, #11, #165, .T. ) ;
#98 = DIRECTION ( 'NONE',  ( -0.0000000000000000000, -0.0000000000000000000, 1.000000000000000000 ) ) ;
#99 = CARTESIAN_POINT ( 'NONE',  ( 8.759767544539689900, -6.500000000000000000, 0.0000000000000000000 ) ) ;
#100 = PRODUCT_DEFINITION_FORMATION_WITH_SPECIFIED_SOURCE ( 'ANY', '', #39, .NOT_KNOWN. ) ;
#101 = CARTESIAN_POINT ( 'NONE',  ( -8.759767544539693400, 6.499999999999994700, 4.000000000000000000 ) ) ;
#102 = CARTESIAN_POINT ( 'NONE',  ( 13.75000000000000000, 6.500000000000003600, 4.000000000000000000 ) ) ;
#103 = CARTESIAN_POINT ( 'NONE',  ( 13.75000000000000000, 6.500000000000003600, 4.000000000000000000 ) ) ;
#104 = DIRECTION ( 'NONE',  ( 1.000000000000000000, 2.311960982108331000E-016, 0.0000000000000000000 ) ) ;
#105 = PLANE ( 'NONE',  #209 ) ;
#106 = MECHANICAL_DESIGN_GEOMETRIC_PRESENTATION_REPRESENTATION (  '', ( #126 ), #94 ) ;
#107 = DIRECTION ( 'NONE',  ( 1.000000000000000000, 2.311960982108331000E-016, 0.0000000000000000000 ) ) ;
#108 = CARTESIAN_POINT ( 'NONE',  ( -2.100000000000000100, 2.571758278209442000E-016, 4.000000000000000000 ) ) ;
#109 = PRESENTATION_LAYER_ASSIGNMENT (  '', '', ( #126 ) ) ;
#110 = LINE ( 'NONE', #162, #217 ) ;
#111 = EDGE_CURVE ( 'NONE', #187, #6, #250, .T. ) ;
#112 = PRODUCT_DEFINITION_CONTEXT ( 'detailed design', #23, 'design' ) ;
#113 = ORIENTED_EDGE ( 'NONE', *, *, #153, .F. ) ;
#114 = VERTEX_POINT ( 'NONE', #101 ) ;
#115 = ORIENTED_EDGE ( 'NONE', *, *, #128, .T. ) ;
#116 = EDGE_CURVE ( 'NONE', #157, #187, #270, .T. ) ;
#117 = ADVANCED_BREP_SHAPE_REPRESENTATION ( '1147024', ( #65, #15 ), #18 ) ;
#118 = VERTEX_POINT ( 'NONE', #25 ) ;
#119 = DIRECTION ( 'NONE',  ( -1.000000000000000000, -2.311960982108331000E-016, 0.0000000000000000000 ) ) ;
#120 = ORIENTED_EDGE ( 'NONE', *, *, #134, .F. ) ;
#121 = DIRECTION ( 'NONE',  ( -2.311960982108331000E-016, 1.000000000000000000, 0.0000000000000000000 ) ) ;
#122 = DIRECTION ( 'NONE',  ( 1.000000000000000000, 0.0000000000000000000, 0.0000000000000000000 ) ) ;
#123 = ORIENTED_EDGE ( 'NONE', *, *, #10, .T. ) ;
#124 = CARTESIAN_POINT ( 'NONE',  ( -13.75000000000000200, -6.500000000000005300, 4.000000000000000000 ) ) ;
#125 = EDGE_CURVE ( 'NONE', #114, #6, #247, .T. ) ;
#126 = STYLED_ITEM ( 'NONE', ( #9 ), #65 ) ;
#127 = DIRECTION ( 'NONE',  ( 1.000000000000000000, 3.853268303513885500E-016, 0.0000000000000000000 ) ) ;
#128 = EDGE_CURVE ( 'NONE', #11, #154, #221, .T. ) ;
#129 = DIRECTION ( 'NONE',  ( 0.0000000000000000000, 0.0000000000000000000, 1.000000000000000000 ) ) ;
#130 =( NAMED_UNIT ( * ) PLANE_ANGLE_UNIT ( ) SI_UNIT ( $, .RADIAN. ) );
#131 = EDGE_LOOP ( 'NONE', ( #193, #120, #123, #115 ) ) ;
#132 = ORIENTED_EDGE ( 'NONE', *, *, #167, .T. ) ;
#133 = CARTESIAN_POINT ( 'NONE',  ( 2.100000000000000100, 0.0000000000000000000, 4.000000000000000000 ) ) ;
#134 = EDGE_CURVE ( 'NONE', #177, #58, #268, .T. ) ;
#135 = CARTESIAN_POINT ( 'NONE',  ( -13.75000000000000200, -6.500000000000005300, 4.000000000000000000 ) ) ;
#136 = VECTOR ( 'NONE', #50, 1000.000000000000000 ) ;
#137 = PLANE ( 'NONE',  #8 ) ;
#138 = PLANE ( 'NONE',  #245 ) ;
#139 = DIRECTION ( 'NONE',  ( 1.000000000000000000, 0.0000000000000000000, -0.0000000000000000000 ) ) ;
#140 = SURFACE_STYLE_USAGE ( .BOTH. , #54 ) ;
#141 = DIRECTION ( 'NONE',  ( -0.0000000000000000000, -0.0000000000000000000, -1.000000000000000000 ) ) ;
#142 = APPLICATION_PROTOCOL_DEFINITION ( 'draft international standard', 'automotive_design', 1998, #23 ) ;
#143 = AXIS2_PLACEMENT_3D ( 'NONE', #269, #7, #20 ) ;
#144 = ORIENTED_EDGE ( 'NONE', *, *, #156, .T. ) ;
#145 = EDGE_CURVE ( 'NONE', #74, #157, #215, .T. ) ;
#146 = EDGE_LOOP ( 'NONE', ( #41, #228 ) ) ;
#147 = ORIENTED_EDGE ( 'NONE', *, *, #111, .F. ) ;
#148 = CARTESIAN_POINT ( 'NONE',  ( 0.0000000000000000000, 0.0000000000000000000, 0.0000000000000000000 ) ) ;
#149 = EDGE_CURVE ( 'NONE', #6, #118, #214, .T. ) ;
#150 = ORIENTED_EDGE ( 'NONE', *, *, #134, .T. ) ;
#151 = CARTESIAN_POINT ( 'NONE',  ( 8.759767544539689900, -6.500000000000000000, 4.000000000000000000 ) ) ;
#152 = ORIENTED_EDGE ( 'NONE', *, *, #97, .T. ) ;
#153 = EDGE_CURVE ( 'NONE', #118, #157, #226, .T. ) ;
#154 = VERTEX_POINT ( 'NONE', #108 ) ;
#155 = UNCERTAINTY_MEASURE_WITH_UNIT (LENGTH_MEASURE( 1.000000000000000100E-005 ), #16, 'distance_accuracy_value', 'NONE');
#156 = EDGE_CURVE ( 'NONE', #96, #74, #206, .T. ) ;
#157 = VERTEX_POINT ( 'NONE', #99 ) ;
#158 =( NAMED_UNIT ( * ) PLANE_ANGLE_UNIT ( ) SI_UNIT ( $, .RADIAN. ) );
#159 = AXIS2_PLACEMENT_3D ( 'NONE', #40, #43, #45 ) ;
#160 = DIRECTION ( 'NONE',  ( 0.3583679495452942700, 0.9335804264972041900, 0.0000000000000000000 ) ) ;
#161 = FACE_OUTER_BOUND ( 'NONE', #1, .T. ) ;
#162 = CARTESIAN_POINT ( 'NONE',  ( -13.75000000000000200, -6.500000000000005300, 4.000000000000000000 ) ) ;
#163 = STYLED_ITEM ( 'NONE', ( #274 ), #117 ) ;
#164 = DIRECTION ( 'NONE',  ( -0.0000000000000000000, -0.0000000000000000000, 1.000000000000000000 ) ) ;
#165 = CIRCLE ( 'NONE', #159, 2.100000000000000100 ) ;
#166 = SHAPE_DEFINITION_REPRESENTATION ( #239, #117 ) ;
#167 = EDGE_CURVE ( 'NONE', #74, #251, #252, .T. ) ;
#168 = FACE_OUTER_BOUND ( 'NONE', #265, .T. ) ;
#169 = VECTOR ( 'NONE', #51, 1000.000000000000000 ) ;
#170 = MECHANICAL_DESIGN_GEOMETRIC_PRESENTATION_REPRESENTATION (  '', ( #163 ), #204 ) ;
#171 = PLANE ( 'NONE',  #232 ) ;
#172 = LINE ( 'NONE', #133, #244 ) ;
#173 = PLANE ( 'NONE',  #263 ) ;
#174 = FACE_OUTER_BOUND ( 'NONE', #191, .T. ) ;
#175 = CIRCLE ( 'NONE', #28, 2.100000000000000100 ) ;
#176 = FACE_OUTER_BOUND ( 'NONE', #131, .T. ) ;
#177 = VERTEX_POINT ( 'NONE', #83 ) ;
#178 = VECTOR ( 'NONE', #87, 1000.000000000000100 ) ;
#179 = CARTESIAN_POINT ( 'NONE',  ( -8.759767544539693400, 6.499999999999994700, 4.000000000000000000 ) ) ;
#180 = FACE_OUTER_BOUND ( 'NONE', #3, .T. ) ;
#181 = DIRECTION ( 'NONE',  ( 3.853268303513885500E-016, -1.000000000000000000, 0.0000000000000000000 ) ) ;
#182 = DIRECTION ( 'NONE',  ( -0.0000000000000000000, -0.0000000000000000000, 1.000000000000000000 ) ) ;
#183 = EDGE_CURVE ( 'NONE', #251, #187, #184, .T. ) ;
#184 = LINE ( 'NONE', #103, #169 ) ;
#185 = FILL_AREA_STYLE_COLOUR ( '', #213 ) ;
#186 =( NAMED_UNIT ( * ) SI_UNIT ( $, .STERADIAN. ) SOLID_ANGLE_UNIT ( ) );
#187 = VERTEX_POINT ( 'NONE', #52 ) ;
#188 = FACE_OUTER_BOUND ( 'NONE', #224, .T. ) ;
#189 = VECTOR ( 'NONE', #104, 1000.000000000000000 ) ;
#190 = CYLINDRICAL_SURFACE ( 'NONE', #256, 2.100000000000000100 ) ;
#191 = EDGE_LOOP ( 'NONE', ( #144, #132, #192, #33 ) ) ;
#192 = ORIENTED_EDGE ( 'NONE', *, *, #44, .T. ) ;
#193 = ORIENTED_EDGE ( 'NONE', *, *, #249, .F. ) ;
#194 = CARTESIAN_POINT ( 'NONE',  ( -13.75000000000000200, -6.500000000000005300, 4.000000000000000000 ) ) ;
#195 = PLANE ( 'NONE',  #276 ) ;
#196 = CYLINDRICAL_SURFACE ( 'NONE', #261, 2.100000000000000100 ) ;
#197 = VECTOR ( 'NONE', #107, 1000.000000000000000 ) ;
#198 = FACE_BOUND ( 'NONE', #231, .T. ) ;
#199 = DIRECTION ( 'NONE',  ( -0.3583679495452943300, -0.9335804264972041900, 0.0000000000000000000 ) ) ;
#200 = FACE_BOUND ( 'NONE', #146, .T. ) ;
#201 = VECTOR ( 'NONE', #237, 1000.000000000000000 ) ;
#202 = VECTOR ( 'NONE', #266, 1000.000000000000100 ) ;
#203 = CARTESIAN_POINT ( 'NONE',  ( 0.0000000000000000000, 0.0000000000000000000, 4.000000000000000000 ) ) ;
#204 =( GEOMETRIC_REPRESENTATION_CONTEXT ( 3 ) GLOBAL_UNCERTAINTY_ASSIGNED_CONTEXT ( ( #248 ) ) GLOBAL_UNIT_ASSIGNED_CONTEXT ( ( #30, #158, #186 ) ) REPRESENTATION_CONTEXT ( 'NONE', 'WORKASPACE' ) );
#205 = FACE_OUTER_BOUND ( 'NONE', #271, .T. ) ;
#206 = LINE ( 'NONE', #89, #189 ) ;
#207 = CARTESIAN_POINT ( 'NONE',  ( 8.759767544539689900, -6.500000000000000000, 4.000000000000000000 ) ) ;
#208 = ORIENTED_EDGE ( 'NONE', *, *, #116, .T. ) ;
#209 = AXIS2_PLACEMENT_3D ( 'NONE', #90, #181, #127 ) ;
#210 = VECTOR ( 'NONE', #42, 1000.000000000000000 ) ;
#211 = ORIENTED_EDGE ( 'NONE', *, *, #125, .T. ) ;
#212 = FACE_OUTER_BOUND ( 'NONE', #258, .T. ) ;
#213 = COLOUR_RGB ( '',0.7529411764705882200, 0.7529411764705882200, 0.7529411764705882200 ) ;
#214 = LINE ( 'NONE', #82, #202 ) ;
#215 = LINE ( 'NONE', #225, #210 ) ;
#216 = ORIENTED_EDGE ( 'NONE', *, *, #229, .F. ) ;
#217 = VECTOR ( 'NONE', #71, 1000.000000000000000 ) ;
#218 = FILL_AREA_STYLE ('',( #267 ) ) ;
#219 = CARTESIAN_POINT ( 'NONE',  ( 0.0000000000000000000, 0.0000000000000000000, 0.0000000000000000000 ) ) ;
#220 = ORIENTED_EDGE ( 'NONE', *, *, #183, .T. ) ;
#221 = CIRCLE ( 'NONE', #79, 2.100000000000000100 ) ;
#222 = PRESENTATION_LAYER_ASSIGNMENT (  '', '', ( #163 ) ) ;
#223 = VECTOR ( 'NONE', #34, 1000.000000000000100 ) ;
#224 = EDGE_LOOP ( 'NONE', ( #208, #76, #257, #77 ) ) ;
#225 = CARTESIAN_POINT ( 'NONE',  ( 8.759767544539689900, -6.500000000000000000, 4.000000000000000000 ) ) ;
#226 = LINE ( 'NONE', #22, #197 ) ;
#227 = ORIENTED_EDGE ( 'NONE', *, *, #111, .T. ) ;
#228 = ORIENTED_EDGE ( 'NONE', *, *, #97, .F. ) ;
#229 = EDGE_CURVE ( 'NONE', #58, #177, #175, .T. ) ;
#230 = ORIENTED_EDGE ( 'NONE', *, *, #10, .F. ) ;
#231 = EDGE_LOOP ( 'NONE', ( #150, #14 ) ) ;
#232 = AXIS2_PLACEMENT_3D ( 'NONE', #203, #53, #64 ) ;
#233 = ADVANCED_FACE ( 'NONE', ( #212 ), #105, .F. ) ;
#234 = ADVANCED_FACE ( 'NONE', ( #200, #174 ), #171, .T. ) ;
#235 = ADVANCED_FACE ( 'NONE', ( #168 ), #138, .F. ) ;
#236 = ADVANCED_FACE ( 'NONE', ( #176 ), #190, .F. ) ;
#237 = DIRECTION ( 'NONE',  ( -0.0000000000000000000, -0.0000000000000000000, 1.000000000000000000 ) ) ;
#238 = ADVANCED_FACE ( 'NONE', ( #161 ), #196, .F. ) ;
#239 = PRODUCT_DEFINITION_SHAPE ( 'NONE', 'NONE',  #31 ) ;
#240 = ADVANCED_FACE ( 'NONE', ( #188 ), #173, .F. ) ;
#241 = ADVANCED_FACE ( 'NONE', ( #180 ), #195, .F. ) ;
#242 = ADVANCED_FACE ( 'NONE', ( #198, #205 ), #137, .F. ) ;
#243 = ORIENTED_EDGE ( 'NONE', *, *, #5, .F. ) ;
#244 = VECTOR ( 'NONE', #164, 1000.000000000000000 ) ;
#245 = AXIS2_PLACEMENT_3D ( 'NONE', #124, #27, #160 ) ;
#246 = ORIENTED_EDGE ( 'NONE', *, *, #2, .T. ) ;
#247 = LINE ( 'NONE', #179, #264 ) ;
#248 = UNCERTAINTY_MEASURE_WITH_UNIT (LENGTH_MEASURE( 1.000000000000000100E-005 ), #30, 'distance_accuracy_value', 'NONE');
#249 = EDGE_CURVE ( 'NONE', #58, #154, #91, .T. ) ;
#250 = LINE ( 'NONE', #36, #75 ) ;
#251 = VERTEX_POINT ( 'NONE', #102 ) ;
#252 = LINE ( 'NONE', #151, #178 ) ;
#253 = FILL_AREA_STYLE ('',( #185 ) ) ;
#254 = SURFACE_STYLE_FILL_AREA ( #218 ) ;
#255 = ORIENTED_EDGE ( 'NONE', *, *, #125, .F. ) ;
#256 = AXIS2_PLACEMENT_3D ( 'NONE', #260, #259, #122 ) ;
#257 = ORIENTED_EDGE ( 'NONE', *, *, #167, .F. ) ;
#258 = EDGE_LOOP ( 'NONE', ( #227, #255, #61, #220 ) ) ;
#259 = DIRECTION ( 'NONE',  ( -0.0000000000000000000, -0.0000000000000000000, 1.000000000000000000 ) ) ;
#260 = CARTESIAN_POINT ( 'NONE',  ( 0.0000000000000000000, 0.0000000000000000000, 4.000000000000000000 ) ) ;
#261 = AXIS2_PLACEMENT_3D ( 'NONE', #72, #182, #262 ) ;
#262 = DIRECTION ( 'NONE',  ( 1.000000000000000000, 0.0000000000000000000, 0.0000000000000000000 ) ) ;
#263 = AXIS2_PLACEMENT_3D ( 'NONE', #207, #88, #199 ) ;
#264 = VECTOR ( 'NONE', #141, 1000.000000000000000 ) ;
#265 = EDGE_LOOP ( 'NONE', ( #81, #63, #243, #211 ) ) ;
#266 = DIRECTION ( 'NONE',  ( -0.3583679495452942200, -0.9335804264972040700, -0.0000000000000000000 ) ) ;
#267 = FILL_AREA_STYLE_COLOUR ( '', #275 ) ;
#268 = CIRCLE ( 'NONE', #143, 2.100000000000000100 ) ;
#269 = CARTESIAN_POINT ( 'NONE',  ( 0.0000000000000000000, 0.0000000000000000000, 0.0000000000000000000 ) ) ;
#270 = LINE ( 'NONE', #47, #223 ) ;
#271 = EDGE_LOOP ( 'NONE', ( #113, #73, #147, #93 ) ) ;
#272 = ORIENTED_EDGE ( 'NONE', *, *, #249, .T. ) ;
#273 = CARTESIAN_POINT ( 'NONE',  ( 2.100000000000000100, 0.0000000000000000000, 4.000000000000000000 ) ) ;
#274 = PRESENTATION_STYLE_ASSIGNMENT (( #37 ) ) ;
#275 = COLOUR_RGB ( '',0.7529411764705882200, 0.7529411764705882200, 0.7529411764705882200 ) ;
#276 = AXIS2_PLACEMENT_3D ( 'NONE', #194, #121, #119 ) ;
ENDSEC;
END-ISO-10303-21;
