ISO-10303-21;
HEADER;
FILE_DESCRIPTION (( 'STEP AP214' ),
    '1' );
FILE_NAME ('1147012.STP',
    '2017-04-07T06:47:34',
    ( '' ),
    ( '' ),
    'SwSTEP 2.0',
    'SolidWorks 2016',
    '' );
FILE_SCHEMA (( 'AUTOMOTIVE_DESIGN' ));
ENDSEC;

DATA;
#1 = CARTESIAN_POINT ( 'NONE',  ( 7.025712500026568100, 4.000000000000000000, 5.250000000000008900 ) ) ;
#2 = EDGE_CURVE ( 'NONE', #102, #39, #232, .T. ) ;
#3 = VERTEX_POINT ( 'NONE', #127 ) ;
#4 = FACE_OUTER_BOUND ( 'NONE', #70, .T. ) ;
#5 = DIRECTION ( 'NONE',  ( 0.3826834323650940000, 0.0000000000000000000, -0.9238795325112849600 ) ) ;
#6 = CARTESIAN_POINT ( 'NONE',  ( 11.37495490494412600, 4.000000000000000000, -5.250000000000000900 ) ) ;
#7 = DIRECTION ( 'NONE',  ( 0.3826834323650940000, 0.0000000000000000000, -0.9238795325112849600 ) ) ;
#8 = ORIENTED_EDGE ( 'NONE', *, *, #2, .F. ) ;
#9 = CARTESIAN_POINT ( 'NONE',  ( 11.37495490494412600, 0.0000000000000000000, -5.250000000000000900 ) ) ;
#10 = CARTESIAN_POINT ( 'NONE',  ( 2.571758278209441500E-016, 5.510910596163093900E-017, 2.100000000000000100 ) ) ;
#11 = VECTOR ( 'NONE', #66, 1000.000000000000000 ) ;
#12 = FACE_OUTER_BOUND ( 'NONE', #55, .T. ) ;
#13 = ORIENTED_EDGE ( 'NONE', *, *, #269, .T. ) ;
#14 = CARTESIAN_POINT ( 'NONE',  ( -11.37495490494416100, 4.000000000000000000, 5.250000000000008000 ) ) ;
#15 = CARTESIAN_POINT ( 'NONE',  ( 7.025712500026568100, 0.0000000000000000000, 5.250000000000008900 ) ) ;
#16 = ORIENTED_EDGE ( 'NONE', *, *, #35, .F. ) ;
#17 = CLOSED_SHELL ( 'NONE', ( #156, #154, #155, #152, #159, #157, #151, #158 ) ) ;
#18 = DIRECTION ( 'NONE',  ( -0.0000000000000000000, -1.000000000000000000, -0.0000000000000000000 ) ) ;
#19 = VECTOR ( 'NONE', #191, 1000.000000000000000 ) ;
#20 = ORIENTED_EDGE ( 'NONE', *, *, #76, .T. ) ;
#21 = CARTESIAN_POINT ( 'NONE',  ( 7.025712500026568100, 0.0000000000000000000, 5.250000000000008900 ) ) ;
#22 = CARTESIAN_POINT ( 'NONE',  ( 2.571758278209441000E-016, 0.0000000000000000000, 2.099999999999999600 ) ) ;
#23 = DIRECTION ( 'NONE',  ( -1.000000000000000000, -0.0000000000000000000, 5.185126663011717600E-016 ) ) ;
#24 = LINE ( 'NONE', #193, #214 ) ;
#25 = EDGE_CURVE ( 'NONE', #261, #71, #146, .T. ) ;
#26 = EDGE_LOOP ( 'NONE', ( #38, #272 ) ) ;
#27 = DIRECTION ( 'NONE',  ( -0.3826834323650936700, -0.0000000000000000000, 0.9238795325112850700 ) ) ;
#28 = DIRECTION ( 'NONE',  ( 0.0000000000000000000, 0.0000000000000000000, -1.000000000000000000 ) ) ;
#29 = DIRECTION ( 'NONE',  ( -0.0000000000000000000, -1.000000000000000000, -0.0000000000000000000 ) ) ;
#30 = DIRECTION ( 'NONE',  ( 0.0000000000000000000, 0.0000000000000000000, -1.000000000000000000 ) ) ;
#31 = ORIENTED_EDGE ( 'NONE', *, *, #276, .T. ) ;
#32 = LINE ( 'NONE', #243, #165 ) ;
#33 = DIRECTION ( 'NONE',  ( -0.0000000000000000000, -1.000000000000000000, -0.0000000000000000000 ) ) ;
#34 = DIRECTION ( 'NONE',  ( 0.3826834323650936100, 0.0000000000000000000, -0.9238795325112850700 ) ) ;
#35 = EDGE_CURVE ( 'NONE', #102, #111, #89, .T. ) ;
#36 = CARTESIAN_POINT ( 'NONE',  ( 0.0000000000000000000, 0.0000000000000000000, 0.0000000000000000000 ) ) ;
#37 =( LENGTH_UNIT ( ) NAMED_UNIT ( * ) SI_UNIT ( .MILLI., .METRE. ) );
#38 = ORIENTED_EDGE ( 'NONE', *, *, #85, .T. ) ;
#39 = VERTEX_POINT ( 'NONE', #9 ) ;
#40 = CARTESIAN_POINT ( 'NONE',  ( -11.37495490494416100, 4.000000000000000000, 5.250000000000008000 ) ) ;
#41 =( NAMED_UNIT ( * ) PLANE_ANGLE_UNIT ( ) SI_UNIT ( $, .RADIAN. ) );
#42 = EDGE_CURVE ( 'NONE', #79, #112, #114, .T. ) ;
#43 = EDGE_LOOP ( 'NONE', ( #113, #84, #106, #153 ) ) ;
#44 = VERTEX_POINT ( 'NONE', #97 ) ;
#45 = ORIENTED_EDGE ( 'NONE', *, *, #2, .T. ) ;
#46 = VECTOR ( 'NONE', #221, 1000.000000000000200 ) ;
#47 = VECTOR ( 'NONE', #5, 1000.000000000000100 ) ;
#48 = CIRCLE ( 'NONE', #217, 2.100000000000000100 ) ;
#49 = EDGE_CURVE ( 'NONE', #39, #203, #218, .T. ) ;
#50 = EDGE_CURVE ( 'NONE', #3, #79, #78, .T. ) ;
#51 = CARTESIAN_POINT ( 'NONE',  ( -7.025712500026611600, 4.000000000000000000, -5.249999999999992000 ) ) ;
#52 = ORIENTED_EDGE ( 'NONE', *, *, #140, .T. ) ;
#53 = ORIENTED_EDGE ( 'NONE', *, *, #133, .F. ) ;
#54 = EDGE_CURVE ( 'NONE', #111, #92, #32, .T. ) ;
#55 = EDGE_LOOP ( 'NONE', ( #31, #53, #250, #174 ) ) ;
#56 = PLANE ( 'NONE',  #160 ) ;
#57 = ORIENTED_EDGE ( 'NONE', *, *, #178, .F. ) ;
#58 = AXIS2_PLACEMENT_3D ( 'NONE', #138, #99, #98 ) ;
#59 = EDGE_LOOP ( 'NONE', ( #110, #263 ) ) ;
#60 = APPLICATION_CONTEXT ( 'automotive_design' ) ;
#61 = CARTESIAN_POINT ( 'NONE',  ( -11.37495490494416100, 4.000000000000000000, 5.250000000000008000 ) ) ;
#62 = ORIENTED_EDGE ( 'NONE', *, *, #54, .T. ) ;
#63 = DIRECTION ( 'NONE',  ( -0.3826834323650939500, 0.0000000000000000000, 0.9238795325112849600 ) ) ;
#64 = ORIENTED_EDGE ( 'NONE', *, *, #140, .F. ) ;
#65 = DIRECTION ( 'NONE',  ( -0.9238795325112850700, 0.0000000000000000000, -0.3826834323650940000 ) ) ;
#66 = DIRECTION ( 'NONE',  ( -0.0000000000000000000, -1.000000000000000000, -0.0000000000000000000 ) ) ;
#67 = DIRECTION ( 'NONE',  ( 0.9238795325112851800, -0.0000000000000000000, 0.3826834323650936700 ) ) ;
#68 = ORIENTED_EDGE ( 'NONE', *, *, #50, .F. ) ;
#69 = VECTOR ( 'NONE', #128, 1000.000000000000000 ) ;
#70 = EDGE_LOOP ( 'NONE', ( #13, #145, #57, #202 ) ) ;
#71 = VERTEX_POINT ( 'NONE', #21 ) ;
#72 =( NAMED_UNIT ( * ) SI_UNIT ( $, .STERADIAN. ) SOLID_ANGLE_UNIT ( ) );
#73 = ORIENTED_EDGE ( 'NONE', *, *, #199, .T. ) ;
#74 = ORIENTED_EDGE ( 'NONE', *, *, #196, .F. ) ;
#75 = ORIENTED_EDGE ( 'NONE', *, *, #199, .F. ) ;
#76 = EDGE_CURVE ( 'NONE', #71, #39, #222, .T. ) ;
#77 =( GEOMETRIC_REPRESENTATION_CONTEXT ( 3 ) GLOBAL_UNCERTAINTY_ASSIGNED_CONTEXT ( ( #96 ) ) GLOBAL_UNIT_ASSIGNED_CONTEXT ( ( #37, #41, #72 ) ) REPRESENTATION_CONTEXT ( 'NONE', 'WORKASPACE' ) );
#78 = LINE ( 'NONE', #22, #126 ) ;
#79 = VERTEX_POINT ( 'NONE', #10 ) ;
#80 = STYLED_ITEM ( 'NONE', ( #182 ), #270 ) ;
#81 = VECTOR ( 'NONE', #136, 1000.000000000000000 ) ;
#82 = PRESENTATION_STYLE_ASSIGNMENT (( #206 ) ) ;
#83 = AXIS2_PLACEMENT_3D ( 'NONE', #131, #65, #63 ) ;
#84 = ORIENTED_EDGE ( 'NONE', *, *, #49, .F. ) ;
#85 = EDGE_CURVE ( 'NONE', #44, #3, #150, .T. ) ;
#86 =( GEOMETRIC_REPRESENTATION_CONTEXT ( 3 ) GLOBAL_UNCERTAINTY_ASSIGNED_CONTEXT ( ( #227 ) ) GLOBAL_UNIT_ASSIGNED_CONTEXT ( ( #147, #144, #275 ) ) REPRESENTATION_CONTEXT ( 'NONE', 'WORKASPACE' ) );
#87 = FACE_OUTER_BOUND ( 'NONE', #229, .T. ) ;
#88 = CARTESIAN_POINT ( 'NONE',  ( 0.0000000000000000000, 5.510910596163093900E-017, 0.0000000000000000000 ) ) ;
#89 = LINE ( 'NONE', #51, #209 ) ;
#90 = STYLED_ITEM ( 'NONE', ( #82 ), #252 ) ;
#91 = PLANE ( 'NONE',  #116 ) ;
#92 = VERTEX_POINT ( 'NONE', #14 ) ;
#93 = FILL_AREA_STYLE ('',( #230 ) ) ;
#94 = AXIS2_PLACEMENT_3D ( 'NONE', #88, #29, #28 ) ;
#95 = ORIENTED_EDGE ( 'NONE', *, *, #231, .F. ) ;
#96 = UNCERTAINTY_MEASURE_WITH_UNIT (LENGTH_MEASURE( 1.000000000000000100E-005 ), #37, 'distance_accuracy_value', 'NONE');
#97 = CARTESIAN_POINT ( 'NONE',  ( 0.0000000000000000000, 4.000000000000000000, -2.099999999999999600 ) ) ;
#98 = DIRECTION ( 'NONE',  ( 0.0000000000000000000, -0.0000000000000000000, -1.000000000000000000 ) ) ;
#99 = DIRECTION ( 'NONE',  ( 0.0000000000000000000, -1.000000000000000000, 0.0000000000000000000 ) ) ;
#100 = PRESENTATION_LAYER_ASSIGNMENT (  '', '', ( #80 ) ) ;
#101 = PLANE ( 'NONE',  #58 ) ;
#102 = VERTEX_POINT ( 'NONE', #6 ) ;
#103 = MECHANICAL_DESIGN_GEOMETRIC_PRESENTATION_REPRESENTATION (  '', ( #90 ), #170 ) ;
#104 = PRODUCT ( '1147012', '1147012', '', ( #120 ) ) ;
#105 = LINE ( 'NONE', #1, #47 ) ;
#106 = ORIENTED_EDGE ( 'NONE', *, *, #76, .F. ) ;
#107 = LINE ( 'NONE', #262, #81 ) ;
#108 = ORIENTED_EDGE ( 'NONE', *, *, #85, .F. ) ;
#109 = EDGE_LOOP ( 'NONE', ( #62, #115, #52, #253 ) ) ;
#110 = ORIENTED_EDGE ( 'NONE', *, *, #236, .F. ) ;
#111 = VERTEX_POINT ( 'NONE', #259 ) ;
#112 = VERTEX_POINT ( 'NONE', #260 ) ;
#113 = ORIENTED_EDGE ( 'NONE', *, *, #276, .F. ) ;
#114 = CIRCLE ( 'NONE', #94, 2.100000000000000100 ) ;
#115 = ORIENTED_EDGE ( 'NONE', *, *, #178, .T. ) ;
#116 = AXIS2_PLACEMENT_3D ( 'NONE', #40, #212, #204 ) ;
#117 = AXIS2_PLACEMENT_3D ( 'NONE', #36, #123, #125 ) ;
#118 = FACE_BOUND ( 'NONE', #59, .T. ) ;
#119 = EDGE_LOOP ( 'NONE', ( #74, #224, #249, #75 ) ) ;
#120 = PRODUCT_CONTEXT ( 'NONE', #60, 'mechanical' ) ;
#121 = APPLICATION_PROTOCOL_DEFINITION ( 'draft international standard', 'automotive_design', 1998, #242 ) ;
#122 = CYLINDRICAL_SURFACE ( 'NONE', #245, 2.099999999999999600 ) ;
#123 = DIRECTION ( 'NONE',  ( 0.0000000000000000000, 0.0000000000000000000, 1.000000000000000000 ) ) ;
#124 = COLOUR_RGB ( '',0.5294117647058823600, 0.5490196078431373000, 0.5490196078431373000 ) ;
#125 = DIRECTION ( 'NONE',  ( 1.000000000000000000, 0.0000000000000000000, 0.0000000000000000000 ) ) ;
#126 = VECTOR ( 'NONE', #18, 1000.000000000000000 ) ;
#127 = CARTESIAN_POINT ( 'NONE',  ( 2.571758278209441000E-016, 4.000000000000000000, 2.099999999999999600 ) ) ;
#128 = DIRECTION ( 'NONE',  ( -0.0000000000000000000, -1.000000000000000000, -0.0000000000000000000 ) ) ;
#129 = AXIS2_PLACEMENT_3D ( 'NONE', #266, #274, #149 ) ;
#130 = PRODUCT_DEFINITION ( 'UNKNOWN', '', #213, #244 ) ;
#131 = CARTESIAN_POINT ( 'NONE',  ( 7.025712500026568100, 4.000000000000000000, 5.250000000000008900 ) ) ;
#132 = CARTESIAN_POINT ( 'NONE',  ( -7.025712500026611600, 0.0000000000000000000, -5.249999999999992000 ) ) ;
#133 = EDGE_CURVE ( 'NONE', #92, #187, #107, .T. ) ;
#134 = LINE ( 'NONE', #171, #255 ) ;
#135 = UNCERTAINTY_MEASURE_WITH_UNIT (LENGTH_MEASURE( 1.000000000000000100E-005 ), #207, 'distance_accuracy_value', 'NONE');
#136 = DIRECTION ( 'NONE',  ( -0.0000000000000000000, -1.000000000000000000, -0.0000000000000000000 ) ) ;
#137 = ORIENTED_EDGE ( 'NONE', *, *, #236, .T. ) ;
#138 = CARTESIAN_POINT ( 'NONE',  ( 0.0000000000000000000, 0.0000000000000000000, 0.0000000000000000000 ) ) ;
#139 = SURFACE_SIDE_STYLE ('',( #208 ) ) ;
#140 = EDGE_CURVE ( 'NONE', #261, #102, #105, .T. ) ;
#141 = LINE ( 'NONE', #177, #226 ) ;
#142 = SURFACE_STYLE_USAGE ( .BOTH. , #139 ) ;
#143 = PLANE ( 'NONE',  #83 ) ;
#144 =( NAMED_UNIT ( * ) PLANE_ANGLE_UNIT ( ) SI_UNIT ( $, .RADIAN. ) );
#145 = ORIENTED_EDGE ( 'NONE', *, *, #25, .F. ) ;
#146 = LINE ( 'NONE', #228, #11 ) ;
#147 =( LENGTH_UNIT ( ) NAMED_UNIT ( * ) SI_UNIT ( .MILLI., .METRE. ) );
#148 = DIRECTION ( 'NONE',  ( 0.0000000000000000000, 0.0000000000000000000, -1.000000000000000000 ) ) ;
#149 = DIRECTION ( 'NONE',  ( 0.0000000000000000000, -0.0000000000000000000, -1.000000000000000000 ) ) ;
#150 = CIRCLE ( 'NONE', #166, 2.099999999999999600 ) ;
#151 = ADVANCED_FACE ( 'NONE', ( #118, #183 ), #101, .T. ) ;
#152 = ADVANCED_FACE ( 'NONE', ( #87 ), #143, .F. ) ;
#153 = ORIENTED_EDGE ( 'NONE', *, *, #269, .F. ) ;
#154 = ADVANCED_FACE ( 'NONE', ( #12 ), #56, .F. ) ;
#155 = ADVANCED_FACE ( 'NONE', ( #4 ), #91, .F. ) ;
#156 = ADVANCED_FACE ( 'NONE', ( #247 ), #122, .F. ) ;
#157 = ADVANCED_FACE ( 'NONE', ( #267, #210 ), #273, .F. ) ;
#158 = ADVANCED_FACE ( 'NONE', ( #238 ), #219, .F. ) ;
#159 = ADVANCED_FACE ( 'NONE', ( #225 ), #164, .F. ) ;
#160 = AXIS2_PLACEMENT_3D ( 'NONE', #61, #67, #34 ) ;
#161 = CARTESIAN_POINT ( 'NONE',  ( 0.0000000000000000000, 0.0000000000000000000, -0.0000000000000000000 ) ) ;
#162 = CARTESIAN_POINT ( 'NONE',  ( -7.025712500026611600, 4.000000000000000000, -5.249999999999992000 ) ) ;
#163 = DIRECTION ( 'NONE',  ( -0.0000000000000000000, -1.000000000000000000, -0.0000000000000000000 ) ) ;
#164 = PLANE ( 'NONE',  #173 ) ;
#165 = VECTOR ( 'NONE', #27, 1000.000000000000200 ) ;
#166 = AXIS2_PLACEMENT_3D ( 'NONE', #240, #256, #257 ) ;
#167 = DIRECTION ( 'NONE',  ( 5.185126663011717600E-016, -0.0000000000000000000, 1.000000000000000000 ) ) ;
#168 = DIRECTION ( 'NONE',  ( 1.000000000000000000, 0.0000000000000000000, -5.185126663011717600E-016 ) ) ;
#169 = DIRECTION ( 'NONE',  ( 1.000000000000000000, 0.0000000000000000000, 4.713751511828835900E-017 ) ) ;
#170 =( GEOMETRIC_REPRESENTATION_CONTEXT ( 3 ) GLOBAL_UNCERTAINTY_ASSIGNED_CONTEXT ( ( #135 ) ) GLOBAL_UNIT_ASSIGNED_CONTEXT ( ( #207, #211, #216 ) ) REPRESENTATION_CONTEXT ( 'NONE', 'WORKASPACE' ) );
#171 = CARTESIAN_POINT ( 'NONE',  ( -11.37495490494416100, 4.000000000000000000, 5.250000000000008000 ) ) ;
#172 = CARTESIAN_POINT ( 'NONE',  ( -11.37495490494416100, 0.0000000000000000000, 5.250000000000008000 ) ) ;
#173 = AXIS2_PLACEMENT_3D ( 'NONE', #162, #167, #168 ) ;
#174 = ORIENTED_EDGE ( 'NONE', *, *, #231, .T. ) ;
#175 = VECTOR ( 'NONE', #7, 1000.000000000000100 ) ;
#176 = ORIENTED_EDGE ( 'NONE', *, *, #49, .T. ) ;
#177 = CARTESIAN_POINT ( 'NONE',  ( 0.0000000000000000000, 0.0000000000000000000, -2.099999999999999600 ) ) ;
#178 = EDGE_CURVE ( 'NONE', #92, #261, #134, .T. ) ;
#179 = MECHANICAL_DESIGN_GEOMETRIC_PRESENTATION_REPRESENTATION (  '', ( #80 ), #86 ) ;
#180 = LINE ( 'NONE', #195, #46 ) ;
#181 = FILL_AREA_STYLE_COLOUR ( '', #223 ) ;
#182 = PRESENTATION_STYLE_ASSIGNMENT (( #142 ) ) ;
#183 = FACE_OUTER_BOUND ( 'NONE', #43, .T. ) ;
#184 = CARTESIAN_POINT ( 'NONE',  ( 0.0000000000000000000, 4.000000000000000000, 0.0000000000000000000 ) ) ;
#185 = DIRECTION ( 'NONE',  ( -0.0000000000000000000, -1.000000000000000000, -0.0000000000000000000 ) ) ;
#186 = DIRECTION ( 'NONE',  ( 0.0000000000000000000, 0.0000000000000000000, -1.000000000000000000 ) ) ;
#187 = VERTEX_POINT ( 'NONE', #172 ) ;
#188 = CARTESIAN_POINT ( 'NONE',  ( -7.025712500026611600, 4.000000000000000000, -5.249999999999992000 ) ) ;
#189 = SURFACE_STYLE_FILL_AREA ( #201 ) ;
#190 = CARTESIAN_POINT ( 'NONE',  ( -7.025712500026611600, 0.0000000000000000000, -5.249999999999992000 ) ) ;
#191 = DIRECTION ( 'NONE',  ( -0.0000000000000000000, -1.000000000000000000, -0.0000000000000000000 ) ) ;
#192 = PRODUCT_DEFINITION_SHAPE ( 'NONE', 'NONE',  #130 ) ;
#193 = CARTESIAN_POINT ( 'NONE',  ( -11.37495490494416100, 0.0000000000000000000, 5.250000000000008000 ) ) ;
#194 = CARTESIAN_POINT ( 'NONE',  ( 7.025712500026568100, 4.000000000000000000, 5.250000000000008900 ) ) ;
#195 = CARTESIAN_POINT ( 'NONE',  ( -11.37495490494416100, 0.0000000000000000000, 5.250000000000008000 ) ) ;
#196 = EDGE_CURVE ( 'NONE', #3, #44, #254, .T. ) ;
#197 = CARTESIAN_POINT ( 'NONE',  ( 0.0000000000000000000, 5.510910596163093900E-017, 0.0000000000000000000 ) ) ;
#198 = DIRECTION ( 'NONE',  ( -0.0000000000000000000, -1.000000000000000000, -0.0000000000000000000 ) ) ;
#199 = EDGE_CURVE ( 'NONE', #44, #112, #141, .T. ) ;
#200 = DIRECTION ( 'NONE',  ( 0.0000000000000000000, 0.0000000000000000000, -1.000000000000000000 ) ) ;
#201 = FILL_AREA_STYLE ('',( #181 ) ) ;
#202 = ORIENTED_EDGE ( 'NONE', *, *, #133, .T. ) ;
#203 = VERTEX_POINT ( 'NONE', #190 ) ;
#204 = DIRECTION ( 'NONE',  ( -1.000000000000000000, 0.0000000000000000000, -4.713751511828835900E-017 ) ) ;
#205 = SURFACE_SIDE_STYLE ('',( #189 ) ) ;
#206 = SURFACE_STYLE_USAGE ( .BOTH. , #205 ) ;
#207 =( LENGTH_UNIT ( ) NAMED_UNIT ( * ) SI_UNIT ( .MILLI., .METRE. ) );
#208 = SURFACE_STYLE_FILL_AREA ( #93 ) ;
#209 = VECTOR ( 'NONE', #241, 1000.000000000000000 ) ;
#210 = FACE_OUTER_BOUND ( 'NONE', #109, .T. ) ;
#211 =( NAMED_UNIT ( * ) PLANE_ANGLE_UNIT ( ) SI_UNIT ( $, .RADIAN. ) );
#212 = DIRECTION ( 'NONE',  ( 4.713751511828835900E-017, 0.0000000000000000000, -1.000000000000000000 ) ) ;
#213 = PRODUCT_DEFINITION_FORMATION_WITH_SPECIFIED_SOURCE ( 'ANY', '', #104, .NOT_KNOWN. ) ;
#214 = VECTOR ( 'NONE', #220, 1000.000000000000000 ) ;
#215 = CARTESIAN_POINT ( 'NONE',  ( 0.0000000000000000000, 0.0000000000000000000, -0.0000000000000000000 ) ) ;
#216 =( NAMED_UNIT ( * ) SI_UNIT ( $, .STERADIAN. ) SOLID_ANGLE_UNIT ( ) );
#217 = AXIS2_PLACEMENT_3D ( 'NONE', #197, #198, #200 ) ;
#218 = LINE ( 'NONE', #132, #264 ) ;
#219 = CYLINDRICAL_SURFACE ( 'NONE', #234, 2.099999999999999600 ) ;
#220 = DIRECTION ( 'NONE',  ( 1.000000000000000000, 0.0000000000000000000, 4.713751511828835900E-017 ) ) ;
#221 = DIRECTION ( 'NONE',  ( -0.3826834323650936700, -0.0000000000000000000, 0.9238795325112850700 ) ) ;
#222 = LINE ( 'NONE', #15, #175 ) ;
#223 = COLOUR_RGB ( '',0.5294117647058823600, 0.5490196078431373000, 0.5490196078431373000 ) ;
#224 = ORIENTED_EDGE ( 'NONE', *, *, #50, .T. ) ;
#225 = FACE_OUTER_BOUND ( 'NONE', #271, .T. ) ;
#226 = VECTOR ( 'NONE', #163, 1000.000000000000000 ) ;
#227 = UNCERTAINTY_MEASURE_WITH_UNIT (LENGTH_MEASURE( 1.000000000000000100E-005 ), #147, 'distance_accuracy_value', 'NONE');
#228 = CARTESIAN_POINT ( 'NONE',  ( 7.025712500026568100, 4.000000000000000000, 5.250000000000008900 ) ) ;
#229 = EDGE_LOOP ( 'NONE', ( #20, #8, #64, #233 ) ) ;
#230 = FILL_AREA_STYLE_COLOUR ( '', #124 ) ;
#231 = EDGE_CURVE ( 'NONE', #111, #203, #246, .T. ) ;
#232 = LINE ( 'NONE', #248, #69 ) ;
#233 = ORIENTED_EDGE ( 'NONE', *, *, #25, .T. ) ;
#234 = AXIS2_PLACEMENT_3D ( 'NONE', #161, #268, #148 ) ;
#235 = EDGE_LOOP ( 'NONE', ( #68, #108, #73, #137 ) ) ;
#236 = EDGE_CURVE ( 'NONE', #112, #79, #48, .T. ) ;
#237 = PRESENTATION_LAYER_ASSIGNMENT (  '', '', ( #90 ) ) ;
#238 = FACE_OUTER_BOUND ( 'NONE', #235, .T. ) ;
#239 = SHAPE_DEFINITION_REPRESENTATION ( #192, #270 ) ;
#240 = CARTESIAN_POINT ( 'NONE',  ( 0.0000000000000000000, 4.000000000000000000, 0.0000000000000000000 ) ) ;
#241 = DIRECTION ( 'NONE',  ( -1.000000000000000000, -0.0000000000000000000, 5.185126663011717600E-016 ) ) ;
#242 = APPLICATION_CONTEXT ( 'automotive_design' ) ;
#243 = CARTESIAN_POINT ( 'NONE',  ( -11.37495490494416100, 4.000000000000000000, 5.250000000000008000 ) ) ;
#244 = PRODUCT_DEFINITION_CONTEXT ( 'detailed design', #242, 'design' ) ;
#245 = AXIS2_PLACEMENT_3D ( 'NONE', #215, #33, #30 ) ;
#246 = LINE ( 'NONE', #188, #19 ) ;
#247 = FACE_OUTER_BOUND ( 'NONE', #119, .T. ) ;
#248 = CARTESIAN_POINT ( 'NONE',  ( 11.37495490494412600, 4.000000000000000000, -5.250000000000000900 ) ) ;
#249 = ORIENTED_EDGE ( 'NONE', *, *, #42, .T. ) ;
#250 = ORIENTED_EDGE ( 'NONE', *, *, #54, .F. ) ;
#251 = APPLICATION_PROTOCOL_DEFINITION ( 'draft international standard', 'automotive_design', 1998, #60 ) ;
#252 = MANIFOLD_SOLID_BREP ( ' Gewindebohrung1', #17 ) ;
#253 = ORIENTED_EDGE ( 'NONE', *, *, #35, .T. ) ;
#254 = CIRCLE ( 'NONE', #265, 2.099999999999999600 ) ;
#255 = VECTOR ( 'NONE', #169, 1000.000000000000000 ) ;
#256 = DIRECTION ( 'NONE',  ( -0.0000000000000000000, -1.000000000000000000, -0.0000000000000000000 ) ) ;
#257 = DIRECTION ( 'NONE',  ( 0.0000000000000000000, 0.0000000000000000000, -1.000000000000000000 ) ) ;
#258 = PRODUCT_RELATED_PRODUCT_CATEGORY ( 'part', '', ( #104 ) ) ;
#259 = CARTESIAN_POINT ( 'NONE',  ( -7.025712500026611600, 4.000000000000000000, -5.249999999999992000 ) ) ;
#260 = CARTESIAN_POINT ( 'NONE',  ( 0.0000000000000000000, 5.510910596163093900E-017, -2.100000000000000100 ) ) ;
#261 = VERTEX_POINT ( 'NONE', #194 ) ;
#262 = CARTESIAN_POINT ( 'NONE',  ( -11.37495490494416100, 4.000000000000000000, 5.250000000000008000 ) ) ;
#263 = ORIENTED_EDGE ( 'NONE', *, *, #42, .F. ) ;
#264 = VECTOR ( 'NONE', #23, 1000.000000000000000 ) ;
#265 = AXIS2_PLACEMENT_3D ( 'NONE', #184, #185, #186 ) ;
#266 = CARTESIAN_POINT ( 'NONE',  ( 0.0000000000000000000, 4.000000000000000000, 0.0000000000000000000 ) ) ;
#267 = FACE_BOUND ( 'NONE', #26, .T. ) ;
#268 = DIRECTION ( 'NONE',  ( -0.0000000000000000000, -1.000000000000000000, -0.0000000000000000000 ) ) ;
#269 = EDGE_CURVE ( 'NONE', #187, #71, #24, .T. ) ;
#270 = ADVANCED_BREP_SHAPE_REPRESENTATION ( '1147012', ( #252, #117 ), #77 ) ;
#271 = EDGE_LOOP ( 'NONE', ( #176, #95, #16, #45 ) ) ;
#272 = ORIENTED_EDGE ( 'NONE', *, *, #196, .T. ) ;
#273 = PLANE ( 'NONE',  #129 ) ;
#274 = DIRECTION ( 'NONE',  ( 0.0000000000000000000, -1.000000000000000000, 0.0000000000000000000 ) ) ;
#275 =( NAMED_UNIT ( * ) SI_UNIT ( $, .STERADIAN. ) SOLID_ANGLE_UNIT ( ) );
#276 = EDGE_CURVE ( 'NONE', #203, #187, #180, .T. ) ;
ENDSEC;
END-ISO-10303-21;
