ISO-10303-21;
HEADER;
FILE_DESCRIPTION(('CoCreate Modeling STEP Export'),'2;1');
FILE_NAME('1014137.stp','2016-10-20T13:40:44',(''),(''),
'CoCreate Modeling STEP processor for AP214 (Solid Model)',
'CoCreate Modeling 16.00D  29-May-2009 (C) Parametric Technology GmbH',
'');
FILE_SCHEMA(('AUTOMOTIVE_DESIGN { 1 0 10303 214 1 1 1 1 }'));
ENDSEC;
DATA;
#10=CARTESIAN_POINT('',(0.,0.,10.));
#20=DIRECTION('',(0.,0.,1.));
#30=DIRECTION('',(1.,0.,0.));
#40=AXIS2_PLACEMENT_3D('',#10,#20,#30);
#50=PLANE('',#40);
#60=CARTESIAN_POINT('',(10.269162822614,-3.5,10.));
#70=DIRECTION('',(0.997564050259824,0.0697564737441255,0.));
#80=VECTOR('',#70,1.);
#90=LINE('',#60,#80);
#100=CARTESIAN_POINT('',(10.269162822614,-3.5,10.));
#110=VERTEX_POINT('',#100);
#120=CARTESIAN_POINT('',(12.2642909231337,-3.36048705251175,10.));
#130=VERTEX_POINT('',#120);
#140=EDGE_CURVE('',#110,#130,#90,.T.);
#150=ORIENTED_EDGE('',*,*,#140,.T.);
#160=CARTESIAN_POINT('',(9.97564050259824,0.697564737441255,10.));
#170=DIRECTION('',(0.0697564737441255,-0.997564050259824,0.));
#180=VECTOR('',#170,1.);
#190=LINE('',#160,#180);
#200=CARTESIAN_POINT('',(9.97564050259824,0.697564737441255,10.));
#210=VERTEX_POINT('',#200);
#220=EDGE_CURVE('',#210,#110,#190,.T.);
#230=ORIENTED_EDGE('',*,*,#220,.T.);
#240=CARTESIAN_POINT('',(0.,0.,10.));
#250=DIRECTION('',(0.,0.,1.));
#260=DIRECTION('',(1.,0.,0.));
#270=AXIS2_PLACEMENT_3D('',#240,#250,#260);
#280=CIRCLE('',#270,10.);
#290=CARTESIAN_POINT('',(-10.,1.22464679914735E-15,10.));
#300=VERTEX_POINT('',#290);
#310=EDGE_CURVE('',#210,#300,#280,.T.);
#320=ORIENTED_EDGE('',*,*,#310,.F.);
#330=CARTESIAN_POINT('',(-10.,0.,10.));
#340=DIRECTION('',(0.,1.,0.));
#350=VECTOR('',#340,1.);
#360=LINE('',#330,#350);
#370=CARTESIAN_POINT('',(-10.,-5.5,10.));
#380=VERTEX_POINT('',#370);
#390=EDGE_CURVE('',#380,#300,#360,.T.);
#400=ORIENTED_EDGE('',*,*,#390,.T.);
#410=CARTESIAN_POINT('',(-14.,-5.5,10.));
#420=DIRECTION('',(0.,0.,-1.));
#430=DIRECTION('',(-1.,0.,0.));
#440=AXIS2_PLACEMENT_3D('',#410,#420,#430);
#450=CIRCLE('',#440,4.);
#460=CARTESIAN_POINT('',(-14.,-9.5,10.));
#470=VERTEX_POINT('',#460);
#480=EDGE_CURVE('',#380,#470,#450,.T.);
#490=ORIENTED_EDGE('',*,*,#480,.F.);
#500=CARTESIAN_POINT('',(0.,-9.5,10.));
#510=DIRECTION('',(1.,0.,0.));
#520=VECTOR('',#510,1.);
#530=LINE('',#500,#520);
#540=CARTESIAN_POINT('',(-33.5,-9.5,10.));
#550=VERTEX_POINT('',#540);
#560=EDGE_CURVE('',#550,#470,#530,.T.);
#570=ORIENTED_EDGE('',*,*,#560,.T.);
#580=CARTESIAN_POINT('',(-33.5,0.,10.));
#590=DIRECTION('',(0.,1.,0.));
#600=VECTOR('',#590,1.);
#610=LINE('',#580,#600);
#620=CARTESIAN_POINT('',(-33.5,-7.5,10.));
#630=VERTEX_POINT('',#620);
#640=EDGE_CURVE('',#550,#630,#610,.T.);
#650=ORIENTED_EDGE('',*,*,#640,.F.);
#660=CARTESIAN_POINT('',(0.,-7.5,10.));
#670=DIRECTION('',(1.,0.,0.));
#680=VECTOR('',#670,1.);
#690=LINE('',#660,#680);
#700=CARTESIAN_POINT('',(-14.,-7.5,10.));
#710=VERTEX_POINT('',#700);
#720=EDGE_CURVE('',#630,#710,#690,.T.);
#730=ORIENTED_EDGE('',*,*,#720,.F.);
#740=CARTESIAN_POINT('',(-14.,-5.5,10.));
#750=DIRECTION('',(0.,0.,-1.));
#760=DIRECTION('',(-1.,0.,0.));
#770=AXIS2_PLACEMENT_3D('',#740,#750,#760);
#780=CIRCLE('',#770,2.);
#790=CARTESIAN_POINT('',(-12.,-5.5,10.));
#800=VERTEX_POINT('',#790);
#810=EDGE_CURVE('',#800,#710,#780,.T.);
#820=ORIENTED_EDGE('',*,*,#810,.T.);
#830=CARTESIAN_POINT('',(-12.,0.,10.));
#840=DIRECTION('',(0.,1.,0.));
#850=VECTOR('',#840,1.);
#860=LINE('',#830,#850);
#870=CARTESIAN_POINT('',(-12.,1.46957615897682E-15,10.));
#880=VERTEX_POINT('',#870);
#890=EDGE_CURVE('',#800,#880,#860,.T.);
#900=ORIENTED_EDGE('',*,*,#890,.F.);
#910=CARTESIAN_POINT('',(0.,0.,10.));
#920=DIRECTION('',(0.,0.,1.));
#930=DIRECTION('',(1.,0.,0.));
#940=AXIS2_PLACEMENT_3D('',#910,#920,#930);
#950=CIRCLE('',#940,12.);
#960=CARTESIAN_POINT('',(11.9707686031179,0.837077684929497,10.));
#970=VERTEX_POINT('',#960);
#980=EDGE_CURVE('',#970,#880,#950,.T.);
#990=ORIENTED_EDGE('',*,*,#980,.T.);
#1000=CARTESIAN_POINT('',(11.9707686031179,0.837077684929506,10.));
#1010=DIRECTION('',(0.0697564737441247,-0.997564050259824,0.));
#1020=VECTOR('',#1010,1.);
#1030=LINE('',#1000,#1020);
#1040=EDGE_CURVE('',#970,#130,#1030,.T.);
#1050=ORIENTED_EDGE('',*,*,#1040,.F.);
#1060=EDGE_LOOP('',(#1050,#990,#900,#820,#730,#650,#570,#490,#400,#320,
#230,#150));
#1070=FACE_OUTER_BOUND('',#1060,.T.);
#1080=ADVANCED_FACE('',(#1070),#50,.T.);
#1090=CARTESIAN_POINT('',(9.97564050259824,0.697564737441255,0.));
#1100=DIRECTION('',(-0.997564050259824,-0.0697564737441255,-0.));
#1110=DIRECTION('',(-0.0697564737441255,0.997564050259824,0.));
#1120=AXIS2_PLACEMENT_3D('',#1090,#1100,#1110);
#1130=PLANE('',#1120);
#1140=ORIENTED_EDGE('',*,*,#220,.F.);
#1150=CARTESIAN_POINT('',(10.269162822614,-3.5,0.));
#1160=DIRECTION('',(0.,0.,-1.));
#1170=VECTOR('',#1160,1.);
#1180=LINE('',#1150,#1170);
#1190=CARTESIAN_POINT('',(10.269162822614,-3.5,-10.));
#1200=VERTEX_POINT('',#1190);
#1210=EDGE_CURVE('',#110,#1200,#1180,.T.);
#1220=ORIENTED_EDGE('',*,*,#1210,.F.);
#1230=CARTESIAN_POINT('',(9.97564050259824,0.697564737441255,-10.));
#1240=DIRECTION('',(0.0697564737441255,-0.997564050259824,0.));
#1250=VECTOR('',#1240,1.);
#1260=LINE('',#1230,#1250);
#1270=CARTESIAN_POINT('',(9.97564050259824,0.697564737441255,-10.));
#1280=VERTEX_POINT('',#1270);
#1290=EDGE_CURVE('',#1280,#1200,#1260,.T.);
#1300=ORIENTED_EDGE('',*,*,#1290,.T.);
#1310=CARTESIAN_POINT('',(9.97564050259824,0.697564737441255,0.));
#1320=DIRECTION('',(0.,0.,1.));
#1330=VECTOR('',#1320,1.);
#1340=LINE('',#1310,#1330);
#1350=EDGE_CURVE('',#1280,#210,#1340,.T.);
#1360=ORIENTED_EDGE('',*,*,#1350,.F.);
#1370=EDGE_LOOP('',(#1360,#1300,#1220,#1140));
#1380=FACE_OUTER_BOUND('',#1370,.T.);
#1390=ADVANCED_FACE('',(#1380),#1130,.T.);
#1400=CARTESIAN_POINT('',(0.,0.,0.));
#1410=DIRECTION('',(0.,0.,1.));
#1420=DIRECTION('',(1.,0.,0.));
#1430=AXIS2_PLACEMENT_3D('',#1400,#1410,#1420);
#1440=CYLINDRICAL_SURFACE('',#1430,10.);
#1450=CARTESIAN_POINT('',(0.,0.,-10.));
#1460=DIRECTION('',(0.,0.,1.));
#1470=DIRECTION('',(1.,0.,0.));
#1480=AXIS2_PLACEMENT_3D('',#1450,#1460,#1470);
#1490=CIRCLE('',#1480,10.);
#1500=CARTESIAN_POINT('',(-10.,1.22464679914735E-15,-10.));
#1510=VERTEX_POINT('',#1500);
#1520=EDGE_CURVE('',#1280,#1510,#1490,.T.);
#1530=ORIENTED_EDGE('',*,*,#1520,.F.);
#1540=CARTESIAN_POINT('',(-10.,1.22464679914735E-15,0.));
#1550=DIRECTION('',(0.,0.,1.));
#1560=VECTOR('',#1550,1.);
#1570=LINE('',#1540,#1560);
#1580=EDGE_CURVE('',#1510,#300,#1570,.T.);
#1590=ORIENTED_EDGE('',*,*,#1580,.F.);
#1600=ORIENTED_EDGE('',*,*,#310,.T.);
#1610=ORIENTED_EDGE('',*,*,#1350,.T.);
#1620=EDGE_LOOP('',(#1610,#1600,#1590,#1530));
#1630=FACE_OUTER_BOUND('',#1620,.T.);
#1640=ADVANCED_FACE('',(#1630),#1440,.F.);
#1650=CARTESIAN_POINT('',(10.269162822614,-3.5,0.));
#1660=DIRECTION('',(0.0697564737441255,-0.997564050259824,0.));
#1670=DIRECTION('',(-0.997564050259824,-0.0697564737441255,0.));
#1680=AXIS2_PLACEMENT_3D('',#1650,#1660,#1670);
#1690=PLANE('',#1680);
#1700=ORIENTED_EDGE('',*,*,#140,.F.);
#1710=CARTESIAN_POINT('',(12.2642909231337,-3.36048705251175,0.));
#1720=DIRECTION('',(0.,0.,1.));
#1730=VECTOR('',#1720,1.);
#1740=LINE('',#1710,#1730);
#1750=CARTESIAN_POINT('',(12.2642909231337,-3.36048705251175,-10.));
#1760=VERTEX_POINT('',#1750);
#1770=EDGE_CURVE('',#1760,#130,#1740,.T.);
#1780=ORIENTED_EDGE('',*,*,#1770,.T.);
#1790=CARTESIAN_POINT('',(10.269162822614,-3.5,-10.));
#1800=DIRECTION('',(0.997564050259824,0.0697564737441255,0.));
#1810=VECTOR('',#1800,1.);
#1820=LINE('',#1790,#1810);
#1830=EDGE_CURVE('',#1200,#1760,#1820,.T.);
#1840=ORIENTED_EDGE('',*,*,#1830,.T.);
#1850=ORIENTED_EDGE('',*,*,#1210,.T.);
#1860=EDGE_LOOP('',(#1850,#1840,#1780,#1700));
#1870=FACE_OUTER_BOUND('',#1860,.T.);
#1880=ADVANCED_FACE('',(#1870),#1690,.T.);
#1890=CARTESIAN_POINT('',(0.,0.,0.));
#1900=DIRECTION('',(0.,0.,1.));
#1910=DIRECTION('',(1.,0.,0.));
#1920=AXIS2_PLACEMENT_3D('',#1890,#1900,#1910);
#1930=CYLINDRICAL_SURFACE('',#1920,12.);
#1940=ORIENTED_EDGE('',*,*,#980,.F.);
#1950=CARTESIAN_POINT('',(-12.,1.46957615897682E-15,0.));
#1960=DIRECTION('',(0.,0.,1.));
#1970=VECTOR('',#1960,1.);
#1980=LINE('',#1950,#1970);
#1990=CARTESIAN_POINT('',(-12.,1.46957615897682E-15,-10.));
#2000=VERTEX_POINT('',#1990);
#2010=EDGE_CURVE('',#2000,#880,#1980,.T.);
#2020=ORIENTED_EDGE('',*,*,#2010,.T.);
#2030=CARTESIAN_POINT('',(0.,0.,-10.));
#2040=DIRECTION('',(0.,0.,1.));
#2050=DIRECTION('',(1.,0.,0.));
#2060=AXIS2_PLACEMENT_3D('',#2030,#2040,#2050);
#2070=CIRCLE('',#2060,12.);
#2080=CARTESIAN_POINT('',(11.9707686031179,0.837077684929497,-10.));
#2090=VERTEX_POINT('',#2080);
#2100=EDGE_CURVE('',#2090,#2000,#2070,.T.);
#2110=ORIENTED_EDGE('',*,*,#2100,.T.);
#2120=CARTESIAN_POINT('',(11.9707686031179,0.837077684929497,0.));
#2130=DIRECTION('',(0.,0.,1.));
#2140=VECTOR('',#2130,1.);
#2150=LINE('',#2120,#2140);
#2160=EDGE_CURVE('',#2090,#970,#2150,.T.);
#2170=ORIENTED_EDGE('',*,*,#2160,.F.);
#2180=EDGE_LOOP('',(#2170,#2110,#2020,#1940));
#2190=FACE_OUTER_BOUND('',#2180,.T.);
#2200=ADVANCED_FACE('',(#2190),#1930,.T.);
#2210=CARTESIAN_POINT('',(11.9707686031179,0.837077684929497,0.));
#2220=DIRECTION('',(0.997564050259824,0.0697564737441247,0.));
#2230=DIRECTION('',(0.0697564737441247,-0.997564050259824,0.));
#2240=AXIS2_PLACEMENT_3D('',#2210,#2220,#2230);
#2250=PLANE('',#2240);
#2260=CARTESIAN_POINT('',(11.9707686031179,0.837077684929506,-10.));
#2270=DIRECTION('',(0.0697564737441247,-0.997564050259824,0.));
#2280=VECTOR('',#2270,1.);
#2290=LINE('',#2260,#2280);
#2300=EDGE_CURVE('',#2090,#1760,#2290,.T.);
#2310=ORIENTED_EDGE('',*,*,#2300,.F.);
#2320=ORIENTED_EDGE('',*,*,#1770,.F.);
#2330=ORIENTED_EDGE('',*,*,#1040,.T.);
#2340=ORIENTED_EDGE('',*,*,#2160,.T.);
#2350=EDGE_LOOP('',(#2340,#2330,#2320,#2310));
#2360=FACE_OUTER_BOUND('',#2350,.T.);
#2370=ADVANCED_FACE('',(#2360),#2250,.T.);
#2380=CARTESIAN_POINT('',(0.,0.,-10.));
#2390=DIRECTION('',(0.,0.,1.));
#2400=DIRECTION('',(1.,0.,0.));
#2410=AXIS2_PLACEMENT_3D('',#2380,#2390,#2400);
#2420=PLANE('',#2410);
#2430=ORIENTED_EDGE('',*,*,#2300,.T.);
#2440=ORIENTED_EDGE('',*,*,#2100,.F.);
#2450=CARTESIAN_POINT('',(-12.,0.,-10.));
#2460=DIRECTION('',(0.,1.,0.));
#2470=VECTOR('',#2460,1.);
#2480=LINE('',#2450,#2470);
#2490=CARTESIAN_POINT('',(-12.,-5.5,-10.));
#2500=VERTEX_POINT('',#2490);
#2510=EDGE_CURVE('',#2500,#2000,#2480,.T.);
#2520=ORIENTED_EDGE('',*,*,#2510,.T.);
#2530=CARTESIAN_POINT('',(-14.,-5.5,-10.));
#2540=DIRECTION('',(0.,0.,-1.));
#2550=DIRECTION('',(-1.,0.,0.));
#2560=AXIS2_PLACEMENT_3D('',#2530,#2540,#2550);
#2570=CIRCLE('',#2560,2.);
#2580=CARTESIAN_POINT('',(-14.,-7.5,-10.));
#2590=VERTEX_POINT('',#2580);
#2600=EDGE_CURVE('',#2500,#2590,#2570,.T.);
#2610=ORIENTED_EDGE('',*,*,#2600,.F.);
#2620=CARTESIAN_POINT('',(0.,-7.5,-10.));
#2630=DIRECTION('',(1.,0.,0.));
#2640=VECTOR('',#2630,1.);
#2650=LINE('',#2620,#2640);
#2660=CARTESIAN_POINT('',(-33.5,-7.5,-10.));
#2670=VERTEX_POINT('',#2660);
#2680=EDGE_CURVE('',#2670,#2590,#2650,.T.);
#2690=ORIENTED_EDGE('',*,*,#2680,.T.);
#2700=CARTESIAN_POINT('',(-33.5,0.,-10.));
#2710=DIRECTION('',(0.,1.,0.));
#2720=VECTOR('',#2710,1.);
#2730=LINE('',#2700,#2720);
#2740=CARTESIAN_POINT('',(-33.5,-9.5,-10.));
#2750=VERTEX_POINT('',#2740);
#2760=EDGE_CURVE('',#2750,#2670,#2730,.T.);
#2770=ORIENTED_EDGE('',*,*,#2760,.T.);
#2780=CARTESIAN_POINT('',(0.,-9.5,-10.));
#2790=DIRECTION('',(1.,0.,0.));
#2800=VECTOR('',#2790,1.);
#2810=LINE('',#2780,#2800);
#2820=CARTESIAN_POINT('',(-14.,-9.5,-10.));
#2830=VERTEX_POINT('',#2820);
#2840=EDGE_CURVE('',#2750,#2830,#2810,.T.);
#2850=ORIENTED_EDGE('',*,*,#2840,.F.);
#2860=CARTESIAN_POINT('',(-14.,-5.5,-10.));
#2870=DIRECTION('',(0.,0.,-1.));
#2880=DIRECTION('',(-1.,0.,0.));
#2890=AXIS2_PLACEMENT_3D('',#2860,#2870,#2880);
#2900=CIRCLE('',#2890,4.);
#2910=CARTESIAN_POINT('',(-10.,-5.5,-10.));
#2920=VERTEX_POINT('',#2910);
#2930=EDGE_CURVE('',#2920,#2830,#2900,.T.);
#2940=ORIENTED_EDGE('',*,*,#2930,.T.);
#2950=CARTESIAN_POINT('',(-10.,0.,-10.));
#2960=DIRECTION('',(0.,1.,0.));
#2970=VECTOR('',#2960,1.);
#2980=LINE('',#2950,#2970);
#2990=EDGE_CURVE('',#2920,#1510,#2980,.T.);
#3000=ORIENTED_EDGE('',*,*,#2990,.F.);
#3010=ORIENTED_EDGE('',*,*,#1520,.T.);
#3020=ORIENTED_EDGE('',*,*,#1290,.F.);
#3030=ORIENTED_EDGE('',*,*,#1830,.F.);
#3040=EDGE_LOOP('',(#3030,#3020,#3010,#3000,#2940,#2850,#2770,#2690,
#2610,#2520,#2440,#2430));
#3050=FACE_OUTER_BOUND('',#3040,.T.);
#3060=ADVANCED_FACE('',(#3050),#2420,.F.);
#3070=CARTESIAN_POINT('',(-10.,-9.5,0.));
#3080=DIRECTION('',(1.,0.,0.));
#3090=DIRECTION('',(0.,-1.,0.));
#3100=AXIS2_PLACEMENT_3D('',#3070,#3080,#3090);
#3110=PLANE('',#3100);
#3120=ORIENTED_EDGE('',*,*,#390,.F.);
#3130=ORIENTED_EDGE('',*,*,#1580,.T.);
#3140=ORIENTED_EDGE('',*,*,#2990,.T.);
#3150=CARTESIAN_POINT('',(-10.,-5.5,0.));
#3160=DIRECTION('',(0.,0.,-1.));
#3170=VECTOR('',#3160,1.);
#3180=LINE('',#3150,#3170);
#3190=EDGE_CURVE('',#380,#2920,#3180,.T.);
#3200=ORIENTED_EDGE('',*,*,#3190,.T.);
#3210=EDGE_LOOP('',(#3200,#3140,#3130,#3120));
#3220=FACE_OUTER_BOUND('',#3210,.T.);
#3230=ADVANCED_FACE('',(#3220),#3110,.T.);
#3240=CARTESIAN_POINT('',(-33.5,-7.5,0.));
#3250=DIRECTION('',(-0.,1.,0.));
#3260=DIRECTION('',(1.,0.,0.));
#3270=AXIS2_PLACEMENT_3D('',#3240,#3250,#3260);
#3280=PLANE('',#3270);
#3290=CARTESIAN_POINT('',(0.,-7.5,3.25));
#3300=DIRECTION('',(1.,0.,0.));
#3310=VECTOR('',#3300,1.);
#3320=LINE('',#3290,#3310);
#3330=CARTESIAN_POINT('',(-27.2996710383927,-7.5,3.25));
#3340=VERTEX_POINT('',#3330);
#3350=CARTESIAN_POINT('',(-19.7003289616073,-7.5,3.25));
#3360=VERTEX_POINT('',#3350);
#3370=EDGE_CURVE('',#3340,#3360,#3320,.T.);
#3380=ORIENTED_EDGE('',*,*,#3370,.F.);
#3390=CARTESIAN_POINT('',(-23.5,-7.5,0.));
#3400=DIRECTION('',(0.,1.,0.));
#3410=DIRECTION('',(1.,0.,0.));
#3420=AXIS2_PLACEMENT_3D('',#3390,#3400,#3410);
#3430=CIRCLE('',#3420,5.);
#3440=CARTESIAN_POINT('',(-18.5,-7.5,0.));
#3450=VERTEX_POINT('',#3440);
#3460=EDGE_CURVE('',#3360,#3450,#3430,.T.);
#3470=ORIENTED_EDGE('',*,*,#3460,.F.);
#3480=CARTESIAN_POINT('',(-19.7003289616073,-7.5,-3.25));
#3490=VERTEX_POINT('',#3480);
#3500=EDGE_CURVE('',#3450,#3490,#3430,.T.);
#3510=ORIENTED_EDGE('',*,*,#3500,.F.);
#3520=CARTESIAN_POINT('',(0.,-7.5,-3.25));
#3530=DIRECTION('',(-1.,0.,0.));
#3540=VECTOR('',#3530,1.);
#3550=LINE('',#3520,#3540);
#3560=CARTESIAN_POINT('',(-27.2996710383927,-7.5,-3.25));
#3570=VERTEX_POINT('',#3560);
#3580=EDGE_CURVE('',#3490,#3570,#3550,.T.);
#3590=ORIENTED_EDGE('',*,*,#3580,.F.);
#3600=CARTESIAN_POINT('',(-23.5,-7.5,0.));
#3610=DIRECTION('',(0.,1.,0.));
#3620=DIRECTION('',(1.,0.,0.));
#3630=AXIS2_PLACEMENT_3D('',#3600,#3610,#3620);
#3640=CIRCLE('',#3630,5.);
#3650=CARTESIAN_POINT('',(-28.5,-7.5,-6.12323399573677E-16));
#3660=VERTEX_POINT('',#3650);
#3670=EDGE_CURVE('',#3570,#3660,#3640,.T.);
#3680=ORIENTED_EDGE('',*,*,#3670,.F.);
#3690=EDGE_CURVE('',#3660,#3340,#3640,.T.);
#3700=ORIENTED_EDGE('',*,*,#3690,.F.);
#3710=EDGE_LOOP('',(#3700,#3680,#3590,#3510,#3470,#3380));
#3720=FACE_BOUND('',#3710,.T.);
#3730=ORIENTED_EDGE('',*,*,#2680,.F.);
#3740=CARTESIAN_POINT('',(-14.,-7.5,0.));
#3750=DIRECTION('',(0.,0.,-1.));
#3760=VECTOR('',#3750,1.);
#3770=LINE('',#3740,#3760);
#3780=EDGE_CURVE('',#710,#2590,#3770,.T.);
#3790=ORIENTED_EDGE('',*,*,#3780,.T.);
#3800=ORIENTED_EDGE('',*,*,#720,.T.);
#3810=CARTESIAN_POINT('',(-33.5,-7.5,0.));
#3820=DIRECTION('',(0.,0.,-1.));
#3830=VECTOR('',#3820,1.);
#3840=LINE('',#3810,#3830);
#3850=EDGE_CURVE('',#630,#2670,#3840,.T.);
#3860=ORIENTED_EDGE('',*,*,#3850,.F.);
#3870=EDGE_LOOP('',(#3860,#3800,#3790,#3730));
#3880=FACE_OUTER_BOUND('',#3870,.T.);
#3890=ADVANCED_FACE('',(#3720,#3880),#3280,.T.);
#3900=CARTESIAN_POINT('',(-33.5,-7.5,0.));
#3910=DIRECTION('',(-1.,0.,0.));
#3920=DIRECTION('',(0.,1.,0.));
#3930=AXIS2_PLACEMENT_3D('',#3900,#3910,#3920);
#3940=PLANE('',#3930);
#3950=ORIENTED_EDGE('',*,*,#640,.T.);
#3960=CARTESIAN_POINT('',(-33.5,-9.5,0.));
#3970=DIRECTION('',(0.,0.,-1.));
#3980=VECTOR('',#3970,1.);
#3990=LINE('',#3960,#3980);
#4000=EDGE_CURVE('',#550,#2750,#3990,.T.);
#4010=ORIENTED_EDGE('',*,*,#4000,.F.);
#4020=ORIENTED_EDGE('',*,*,#2760,.F.);
#4030=ORIENTED_EDGE('',*,*,#3850,.T.);
#4040=EDGE_LOOP('',(#4030,#4020,#4010,#3950));
#4050=FACE_OUTER_BOUND('',#4040,.T.);
#4060=ADVANCED_FACE('',(#4050),#3940,.T.);
#4070=CARTESIAN_POINT('',(-10.,-9.5,0.));
#4080=DIRECTION('',(-0.,-1.,-0.));
#4090=DIRECTION('',(-1.,0.,0.));
#4100=AXIS2_PLACEMENT_3D('',#4070,#4080,#4090);
#4110=PLANE('',#4100);
#4120=CARTESIAN_POINT('',(-23.5,-9.5,0.));
#4130=DIRECTION('',(0.,1.,0.));
#4140=DIRECTION('',(1.,0.,0.));
#4150=AXIS2_PLACEMENT_3D('',#4120,#4130,#4140);
#4160=CIRCLE('',#4150,5.);
#4170=CARTESIAN_POINT('',(-18.5,-9.5,0.));
#4180=VERTEX_POINT('',#4170);
#4190=CARTESIAN_POINT('',(-19.7003289616073,-9.5,-3.25));
#4200=VERTEX_POINT('',#4190);
#4210=EDGE_CURVE('',#4180,#4200,#4160,.T.);
#4220=ORIENTED_EDGE('',*,*,#4210,.T.);
#4230=CARTESIAN_POINT('',(-19.7003289616073,-9.5,3.25));
#4240=VERTEX_POINT('',#4230);
#4250=EDGE_CURVE('',#4240,#4180,#4160,.T.);
#4260=ORIENTED_EDGE('',*,*,#4250,.T.);
#4270=CARTESIAN_POINT('',(0.,-9.5,3.25));
#4280=DIRECTION('',(-1.,0.,0.));
#4290=VECTOR('',#4280,1.);
#4300=LINE('',#4270,#4290);
#4310=CARTESIAN_POINT('',(-27.2996710383927,-9.5,3.25));
#4320=VERTEX_POINT('',#4310);
#4330=EDGE_CURVE('',#4240,#4320,#4300,.T.);
#4340=ORIENTED_EDGE('',*,*,#4330,.F.);
#4350=CARTESIAN_POINT('',(-23.5,-9.5,0.));
#4360=DIRECTION('',(0.,1.,0.));
#4370=DIRECTION('',(1.,0.,0.));
#4380=AXIS2_PLACEMENT_3D('',#4350,#4360,#4370);
#4390=CIRCLE('',#4380,5.);
#4400=CARTESIAN_POINT('',(-28.5,-9.5,-6.12323399573677E-16));
#4410=VERTEX_POINT('',#4400);
#4420=EDGE_CURVE('',#4410,#4320,#4390,.T.);
#4430=ORIENTED_EDGE('',*,*,#4420,.T.);
#4440=CARTESIAN_POINT('',(-27.2996710383927,-9.5,-3.25));
#4450=VERTEX_POINT('',#4440);
#4460=EDGE_CURVE('',#4450,#4410,#4390,.T.);
#4470=ORIENTED_EDGE('',*,*,#4460,.T.);
#4480=CARTESIAN_POINT('',(0.,-9.5,-3.25));
#4490=DIRECTION('',(1.,0.,0.));
#4500=VECTOR('',#4490,1.);
#4510=LINE('',#4480,#4500);
#4520=EDGE_CURVE('',#4450,#4200,#4510,.T.);
#4530=ORIENTED_EDGE('',*,*,#4520,.F.);
#4540=EDGE_LOOP('',(#4530,#4470,#4430,#4340,#4260,#4220));
#4550=FACE_BOUND('',#4540,.T.);
#4560=ORIENTED_EDGE('',*,*,#2840,.T.);
#4570=ORIENTED_EDGE('',*,*,#4000,.T.);
#4580=ORIENTED_EDGE('',*,*,#560,.F.);
#4590=CARTESIAN_POINT('',(-14.,-9.5,0.));
#4600=DIRECTION('',(0.,0.,-1.));
#4610=VECTOR('',#4600,1.);
#4620=LINE('',#4590,#4610);
#4630=EDGE_CURVE('',#470,#2830,#4620,.T.);
#4640=ORIENTED_EDGE('',*,*,#4630,.F.);
#4650=EDGE_LOOP('',(#4640,#4580,#4570,#4560));
#4660=FACE_OUTER_BOUND('',#4650,.T.);
#4670=ADVANCED_FACE('',(#4550,#4660),#4110,.T.);
#4680=CARTESIAN_POINT('',(-12.,7.34788079488412E-16,0.));
#4690=DIRECTION('',(-1.,0.,0.));
#4700=DIRECTION('',(0.,1.,0.));
#4710=AXIS2_PLACEMENT_3D('',#4680,#4690,#4700);
#4720=PLANE('',#4710);
#4730=ORIENTED_EDGE('',*,*,#2510,.F.);
#4740=ORIENTED_EDGE('',*,*,#2010,.F.);
#4750=ORIENTED_EDGE('',*,*,#890,.T.);
#4760=CARTESIAN_POINT('',(-12.,-5.5,0.));
#4770=DIRECTION('',(0.,0.,-1.));
#4780=VECTOR('',#4770,1.);
#4790=LINE('',#4760,#4780);
#4800=EDGE_CURVE('',#800,#2500,#4790,.T.);
#4810=ORIENTED_EDGE('',*,*,#4800,.F.);
#4820=EDGE_LOOP('',(#4810,#4750,#4740,#4730));
#4830=FACE_OUTER_BOUND('',#4820,.T.);
#4840=ADVANCED_FACE('',(#4830),#4720,.T.);
#4850=CARTESIAN_POINT('',(-19.7003289616073,-11.6500024,3.25));
#4860=DIRECTION('',(0.,0.,1.));
#4870=DIRECTION('',(-1.,0.,0.));
#4880=AXIS2_PLACEMENT_3D('',#4850,#4860,#4870);
#4890=PLANE('',#4880);
#4900=CARTESIAN_POINT('',(-27.2996710383927,-11.6500024,3.25));
#4910=DIRECTION('',(0.,1.,0.));
#4920=VECTOR('',#4910,1.);
#4930=LINE('',#4900,#4920);
#4940=EDGE_CURVE('',#4320,#3340,#4930,.T.);
#4950=ORIENTED_EDGE('',*,*,#4940,.T.);
#4960=ORIENTED_EDGE('',*,*,#4330,.T.);
#4970=CARTESIAN_POINT('',(-19.7003289616073,-11.6500024,3.25));
#4980=DIRECTION('',(0.,1.,0.));
#4990=VECTOR('',#4980,1.);
#5000=LINE('',#4970,#4990);
#5010=EDGE_CURVE('',#4240,#3360,#5000,.T.);
#5020=ORIENTED_EDGE('',*,*,#5010,.F.);
#5030=ORIENTED_EDGE('',*,*,#3370,.T.);
#5040=EDGE_LOOP('',(#5030,#5020,#4960,#4950));
#5050=FACE_OUTER_BOUND('',#5040,.T.);
#5060=ADVANCED_FACE('',(#5050),#4890,.F.);
#5070=CARTESIAN_POINT('',(-14.,-5.5,0.));
#5080=DIRECTION('',(0.,0.,-1.));
#5090=DIRECTION('',(-1.,0.,0.));
#5100=AXIS2_PLACEMENT_3D('',#5070,#5080,#5090);
#5110=CYLINDRICAL_SURFACE('',#5100,2.);
#5120=ORIENTED_EDGE('',*,*,#810,.F.);
#5130=ORIENTED_EDGE('',*,*,#3780,.F.);
#5140=ORIENTED_EDGE('',*,*,#2600,.T.);
#5150=ORIENTED_EDGE('',*,*,#4800,.T.);
#5160=EDGE_LOOP('',(#5150,#5140,#5130,#5120));
#5170=FACE_OUTER_BOUND('',#5160,.T.);
#5180=ADVANCED_FACE('',(#5170),#5110,.F.);
#5190=CARTESIAN_POINT('',(-27.2996710383927,-11.6500024,-3.25));
#5200=DIRECTION('',(0.,0.,-1.));
#5210=DIRECTION('',(1.,0.,0.));
#5220=AXIS2_PLACEMENT_3D('',#5190,#5200,#5210);
#5230=PLANE('',#5220);
#5240=CARTESIAN_POINT('',(-27.2996710383927,-11.6500024,-3.25));
#5250=DIRECTION('',(0.,1.,0.));
#5260=VECTOR('',#5250,1.);
#5270=LINE('',#5240,#5260);
#5280=EDGE_CURVE('',#4450,#3570,#5270,.T.);
#5290=ORIENTED_EDGE('',*,*,#5280,.F.);
#5300=ORIENTED_EDGE('',*,*,#3580,.T.);
#5310=CARTESIAN_POINT('',(-19.7003289616073,-11.6500024,-3.25));
#5320=DIRECTION('',(0.,1.,0.));
#5330=VECTOR('',#5320,1.);
#5340=LINE('',#5310,#5330);
#5350=EDGE_CURVE('',#4200,#3490,#5340,.T.);
#5360=ORIENTED_EDGE('',*,*,#5350,.T.);
#5370=ORIENTED_EDGE('',*,*,#4520,.T.);
#5380=EDGE_LOOP('',(#5370,#5360,#5300,#5290));
#5390=FACE_OUTER_BOUND('',#5380,.T.);
#5400=ADVANCED_FACE('',(#5390),#5230,.F.);
#5410=CARTESIAN_POINT('',(-23.5,-11.6500024,0.));
#5420=DIRECTION('',(0.,1.,0.));
#5430=DIRECTION('',(1.,0.,0.));
#5440=AXIS2_PLACEMENT_3D('',#5410,#5420,#5430);
#5450=CYLINDRICAL_SURFACE('',#5440,5.);
#5460=ORIENTED_EDGE('',*,*,#4940,.F.);
#5470=ORIENTED_EDGE('',*,*,#3690,.T.);
#5480=CARTESIAN_POINT('',(-28.5,-11.6500024,-6.12323399573677E-16));
#5490=DIRECTION('',(0.,1.,0.));
#5500=VECTOR('',#5490,1.);
#5510=LINE('',#5480,#5500);
#5520=EDGE_CURVE('',#4410,#3660,#5510,.T.);
#5530=ORIENTED_EDGE('',*,*,#5520,.T.);
#5540=ORIENTED_EDGE('',*,*,#4420,.F.);
#5550=EDGE_LOOP('',(#5540,#5530,#5470,#5460));
#5560=FACE_OUTER_BOUND('',#5550,.T.);
#5570=ADVANCED_FACE('',(#5560),#5450,.F.);
#5580=CARTESIAN_POINT('',(-23.5,-11.6500024,0.));
#5590=DIRECTION('',(0.,1.,0.));
#5600=DIRECTION('',(1.,0.,0.));
#5610=AXIS2_PLACEMENT_3D('',#5580,#5590,#5600);
#5620=CYLINDRICAL_SURFACE('',#5610,5.);
#5630=ORIENTED_EDGE('',*,*,#5350,.F.);
#5640=ORIENTED_EDGE('',*,*,#3500,.T.);
#5650=CARTESIAN_POINT('',(-18.5,-11.6500024,0.));
#5660=DIRECTION('',(0.,1.,0.));
#5670=VECTOR('',#5660,1.);
#5680=LINE('',#5650,#5670);
#5690=EDGE_CURVE('',#4180,#3450,#5680,.T.);
#5700=ORIENTED_EDGE('',*,*,#5690,.T.);
#5710=ORIENTED_EDGE('',*,*,#4210,.F.);
#5720=EDGE_LOOP('',(#5710,#5700,#5640,#5630));
#5730=FACE_OUTER_BOUND('',#5720,.T.);
#5740=ADVANCED_FACE('',(#5730),#5620,.F.);
#5750=CARTESIAN_POINT('',(-14.,-5.5,0.));
#5760=DIRECTION('',(0.,0.,-1.));
#5770=DIRECTION('',(-1.,0.,0.));
#5780=AXIS2_PLACEMENT_3D('',#5750,#5760,#5770);
#5790=CYLINDRICAL_SURFACE('',#5780,4.);
#5800=ORIENTED_EDGE('',*,*,#2930,.F.);
#5810=ORIENTED_EDGE('',*,*,#4630,.T.);
#5820=ORIENTED_EDGE('',*,*,#480,.T.);
#5830=ORIENTED_EDGE('',*,*,#3190,.F.);
#5840=EDGE_LOOP('',(#5830,#5820,#5810,#5800));
#5850=FACE_OUTER_BOUND('',#5840,.T.);
#5860=ADVANCED_FACE('',(#5850),#5790,.T.);
#5870=ORIENTED_EDGE('',*,*,#3670,.T.);
#5880=ORIENTED_EDGE('',*,*,#5280,.T.);
#5890=ORIENTED_EDGE('',*,*,#4460,.F.);
#5900=ORIENTED_EDGE('',*,*,#5520,.F.);
#5910=EDGE_LOOP('',(#5900,#5890,#5880,#5870));
#5920=FACE_OUTER_BOUND('',#5910,.T.);
#5930=ADVANCED_FACE('',(#5920),#5450,.F.);
#5940=ORIENTED_EDGE('',*,*,#3460,.T.);
#5950=ORIENTED_EDGE('',*,*,#5010,.T.);
#5960=ORIENTED_EDGE('',*,*,#4250,.F.);
#5970=ORIENTED_EDGE('',*,*,#5690,.F.);
#5980=EDGE_LOOP('',(#5970,#5960,#5950,#5940));
#5990=FACE_OUTER_BOUND('',#5980,.T.);
#6000=ADVANCED_FACE('',(#5990),#5620,.F.);
#6010=CLOSED_SHELL('',(#1640,#1880,#2200,#2370,#3060,#3230,#3890,#4060,
#4670,#4840,#5060,#5180,#5400,#5570,#5740,#5860,#5930,#6000,#1080,#1390)
);
#6020=MANIFOLD_SOLID_BREP('',#6010);
#6030=CARTESIAN_POINT('',(0.,0.,0.));
#6040=DIRECTION('',(0.,0.,1.));
#6050=DIRECTION('',(1.,0.,0.));
#6060=AXIS2_PLACEMENT_3D('',#6030,#6040,#6050);
#6070=APPLICATION_CONTEXT(' ');
#6080=APPLICATION_PROTOCOL_DEFINITION(' ','automotive_design',1998,#6070
);
#6090=PRODUCT_CONTEXT('',#6070,'mechanical');
#6100=PRODUCT_DEFINITION_CONTEXT('part definition',#6070,'design');
#6110=PRODUCT('Befestigungsschelle','Befestigungsschelle','',(#6090));
#6120=PRODUCT_RELATED_PRODUCT_CATEGORY('part',' ',(#6110));
#6130=PRODUCT_DEFINITION_FORMATION_WITH_SPECIFIED_SOURCE('','',#6110,
.BOUGHT.);
#6140=PRODUCT_DEFINITION('',' ',#6130,#6100);
#6150=PRODUCT_DEFINITION_SHAPE('','',#6140);
#6160=DIMENSIONAL_EXPONENTS(1.,0.,0.,0.,0.,0.,0.);
#6170=DIMENSIONAL_EXPONENTS(0.,0.,0.,0.,0.,0.,0.);
#6180=DIMENSIONAL_EXPONENTS(0.,0.,0.,0.,0.,0.,0.);
#6190=(LENGTH_UNIT() NAMED_UNIT(*) SI_UNIT(.MILLI.,.METRE.));
#6200=(NAMED_UNIT(*) PLANE_ANGLE_UNIT() SI_UNIT($,.RADIAN.));
#6210=(NAMED_UNIT(*) SI_UNIT($,.STERADIAN.) SOLID_ANGLE_UNIT());
#6220=(GEOMETRIC_REPRESENTATION_CONTEXT(3) 
GLOBAL_UNCERTAINTY_ASSIGNED_CONTEXT((#6230)) 
GLOBAL_UNIT_ASSIGNED_CONTEXT((#6190,#6200,#6210)) REPRESENTATION_CONTEXT
('',''));
#6230=UNCERTAINTY_MEASURE_WITH_UNIT(LENGTH_MEASURE(1.E-6),#6190,
'distance_accuracy_value','maximum gap value');
#6240=ADVANCED_BREP_SHAPE_REPRESENTATION('',(#6060,#6020),#6220);
#6250=SHAPE_DEFINITION_REPRESENTATION(#6150,#6240);
#6260=COLOUR_RGB('',0.600000023841858,0.600000023841858,
0.600000023841858);
#6270=FILL_AREA_STYLE_COLOUR('',#6260);
#6280=FILL_AREA_STYLE('',(#6270));
#6290=SURFACE_STYLE_FILL_AREA(#6280);
#6300=SURFACE_SIDE_STYLE('',(#6290));
#6310=SURFACE_STYLE_USAGE(.BOTH.,#6300);
#6320=PRESENTATION_STYLE_ASSIGNMENT((#6310));
#6330=STYLED_ITEM('',(#6320),#6020);
#6340=DRAUGHTING_MODEL('',(#6330),#6220);
ENDSEC;
END-ISO-10303-21;
